Kiko Machine - Val Sotto Chords & Tabs

 

Val Sotto Chords & Tabs

Kiko Machine Chords & Tabs

Version: 1 Type: Tab

Val Sotto Tab

   
INTRO:

e|-9--10--9----5--5--7--7s10--9--|      ulitin 2x
B|-10------10--7-----7-----------|
G|-9-----------6-----7-----------|
D|-------------------------------|
A|-------------------------------|
E|-------------------------------|



e|-----------------------------------------5--|
B|-----------------------------------3-----6--|     ulitin 2x
G|-------6-------------2-----------4--4----7--|
D|-----7---7---------4---4-------4---------7--|
A|---7-------7-----4-------4---2--------2--5--|
E|-5-------------2----------------------------|

[ Tab from: http://www.guitartabs.cc/tabs/k/kiko_machine/val_sotto_tab.html ]
Chorus:
      A      F#m     Bm     Dm            A
sa bigote palang pamatay,panalo ang idol ko
F#m      Bm  Dm
macho...macho.....
     A           F#m        Bm         Dm              A
kapatid niya si tito at si vic ngunit siya ang pinaka guapo
     F#m     Bm          Dm
idol ko.....uwohoooo si val sotto...

    A                        F
e|-----------------------------|
B|-----10----10--13--12--10----|
G|--11----11-----------------10|
D|-----------------------------|
A|-----------------------------|                 ULITIN NIYO ITO 2X
E|-----------------------------|                 THEN  VERSE NA.....
                                          A...A...G TAPOS...CHORUS NANAMAN
   A                          F   G

e|-----------------------------------|
B|-----10----10--13--12--10----------|
G|--11----11-----------------10---12-|
D|-----------------------------------|
A|-----------------------------------|
E|-----------------------------------|