Kids Near Water - Some Free Advice Chords & Tabs

 

Some Free Advice Chords & Tabs

Kids Near Water Chords & Tabs

Version: 1 Type: Tab 0 ratings
1 star 2 stars 3 stars 4 stars 5 stars
comments

Some Free Advice Tab

   
:Jack D 
Park_punk@hotmail.com
      
                       Kids Near Water-Some Free Advice 
 Intro 1 Guitar 1 
e|---------------------------------------------------------------------------|
B|---------------------------------------------------------------------------|
G|--777777777-77777777-777777777-77777777------------------------------------|
D|--777777777-77777777-777777777-77777777------------------------------------|
A|--555555555-55555555-555555555-55555555------------------------------------|
D|--555555555-55555555-555555555-55555555------------------------------------|
Intro 1 Guitar 2 
e|---------------------------------------------------------------------------|
B|---------------------------------------------------------------------------|
G|---77777777-77777799-77777777-7777799--------------------------------------|
D|---77777777----------77777777----------------------------------------------|
A|---55555555-55555577-55555555-5555577--------------------------------------|
D|---55555555----------55555555----------------------------------------------|
Intro 2 Both guitars X 16 For Guitar 1 x 8 Guitar 2
e|---------------------------------------------------------------------------|
B|---------------------------------------------------------------------------|
G|---------------------------------------------------------------------------|
D|---------------------------------------------------------------------------|
A|----000550-000550-000550-000550--------------------------------------------|
D|----000550-000550-000550-000550--------------------------------------------|
Intro 2 Guitar 2 
e|---------------------------------------------------------------------------|
B|---------------------------------------------------------------------------|
G|77777777-9999-11111111-77777777-1414141414141414---------------------------|
D|---------------------------------------------------------------------------|
A|55555555-7777-9-9-9-9--55555555-1212121212121212---------------------------|
D|---------------------------------------------------------------------------|
Verse Guitar 1 x2
e|---------------------------------------------------------------------------|
B|---------------------------------------------------------------------------|
G|--------555577-------555577-------555577-------121212121111----------------|
D|---------------------------------------------------------------------------|
A|-000550-333355-00550-333355-00550-333355-00550-101010109-9-----------------|
D|-000550--------00550--------00550--------00550-----------------------------|
   ......        .....        .....        .....
Verse Guitar 2 Only comes in on the 2nd riff of the verse x alto 
e|---------------------------------------------------------------------------|
B|---------------------------------------------------------------------------|
G|-------14141414------------------------------------------------------------|
D|---------------------------------------------------------------------------|
A|-------12121212------------------------------------------------------------|
D|---------------------------------------------------------------------------|
Chorus Guitar 1 X4 
e|---------------------------------------------------------------------------|
B|---------------------------------------------------------------------------|
G|----10101010-9999-10101010-10101010----------------------------------------|
D|----10101010-9999-10101010-10101010----------------------------------------|
A|----8-8-8-8--8888-8-8-8-8--8-8-8-8-----------------------------------------|
D|---------------------------------------------------------------------------|
Chorus Guitar 2 x3     Then play this x 1 
e|-----------------------------------|---------------------------------------|
B|-----------------------------------|---------------------------------------|
G|-10101010-9999--10101010--14141414-|---12-141414141414-12121212------------|
D|-10101010-9999--10101010-----------|---------------------------------------|
A|-8-8-8-8--8888--8-8-8-8---12121212-|---10-121212121212-10101010------------|
D|-----------------------------------|---------------------------------------|
Break Both Guitars x4        Bridge Guitar 1 only x 1 
e|-----------------------|---------------------------------------------------|
B|-----------------------|---------------------------------------------------|
G|-----------------------|---1313131313131313--1414141414141414--------------|
D|-----------------------|---------------------------------------------------|
A|-00-3h5-5-000-3h5-5----|---1111111111111111--1212121212121212--------------|
D|-00-------000----------|---------------------------------------------------|
   ..       ...

Structure 
Intro 
Intro 2 
Verse
Chorus 
Break 
Verse 
Chorus 
Break 
Bridge 
Chorus 
Break
[ Tab from: http://www.guitartabs.cc/tabs/k/kids_near_water/some_free_advice_tab.html ]
Comments