Kidnapped Occasionally - Focus Chords & Tabs

 

Focus Chords & Tabs

Kidnapped Occasionally Chords & Tabs

Version: 1 Type: Tab 0 ratings
1 star 2 stars 3 stars 4 stars 5 stars
comments

Focus Tab

   
"Focus" by Kidnapped Occasionally
Alright, this one is completely correct.
Tuning: drop D
Note: Time Signature changes frequently.

(5/4)
  Intro
e |---------------------|---------------------|
B |---------------------|---------------------|
G |-----2---------------|-----2---------------|
D |---3-------5---3---0-|---3-------5---3---0-|
A |-0-------3---1-------|-0-------3---1-------|
D |-------3---------0---|-------3---------0---|

e |---------------------|---------------------|
B |---------------------|---------------------|
G |-----2---------------|-----2---------------|  (x2)
D |---3-------5---3---0-|---3-------5---3-----|
A |-0-------3---1-------|-0-------3---1-------|
D |-------3---------0---|-------3-------------|

  Verse
e |---------------------|---------------------|
B |---------------------|---------------------|
G |-----2---------------|-----2---------------|   (x4)
D |---3-------5---3---0-|---3-------5---3---0-|
A |-0-------3---1-------|-0-------3---1-------|
D |-------3---------0---|-------3---------0---|

  Pre-Chorus (7/8)
e |----------------------------------|------------------------------------|
B |----------------------------------|------------------------------------|
G |-----3-2/0------------------------|-----3-2/0--------------------------|
D |---3-----------5-----10-8/7-----7-|---3-----------5-----10-8/7-----7---|
A |-0-----------3-----8----------5---|-0-----------3-----8----------5---5-|
D |-----------3-----8----------0-----|-----------3-----8----------0-------|

  Chorus (4/4)
e |---------------------------------|---------------------------------|
B |---------------------------------|---------------------------------|
G |-----7---------------------------|-----7---------------------------|
D |---7---7-----0-----0-2-3-5-----3-|---7---7-----0-----0-2-3-2-----5-|
A |-----------8-----0-----------3---|-----------8-----0-----------3---|
D |-0-------8-----0-----------3-----|-0-------8-----0-----------3-----|

  Pre-Verse
e |---------|
B |---------|
G |---------|
D |---3---0-|
A |-1-------|
D |-----0---|


Verse  (5/4)
e |---------------------|---------------------|
B |---------------------|---------------------|
G |-----2---------------|-----2---------------|   (x4)
D |---3-------5---3---0-|---3-------5---3---0-|
A |-0-------3---1-------|-0-------3---1-------|
D |-------3---------0---|-------3---------0---|

 Pre-Chorus (7/8)
e |----------------------------------|------------------------------------|
B |----------------------------------|------------------------------------|
G |-----3-2/0------------------------|-----3-2/0--------------------------|  (x2)
D |---3-----------5-----10-8/7-----7-|---3-----------5-----10-8/7-----7---|
A |-0-----------3-----8----------5---|-0-----------3-----8----------5---5-|
D |-----------3-----8----------0-----|-----------3-----8----------0-------|

Chorus (4/4)
e |---------------------------------|---------------------------------|
B |---------------------------------|---------------------------------|
G |-----7---------------------------|-----7---------------------------|
D |---7---7-----0-----0-2-3-5-----3-|---7---7-----0-----0-2-3-2-----5-|
A |-----------8-----0-----------3---|-----------8-----0-----------3---|
D |-0-------8-----0-----------3-----|-0-------8-----0-----------3-----|

  Pre-Verse
e |---------|
B |---------|
G |---------|
D |---3---0-|
A |-1-------|
D |-----0---|

[ Tab from: http://www.guitartabs.cc/tabs/k/kidnapped_occasionally/focus_tab.html ]
e |---------------------|---------------------|
B |---------------------|---------------------|
G |-----2---------------|-----2---------------| (x2)
D |---3-------5---3---0-|---3-------5---3---0-|
A |-0-------3---1-------|-0-------3---1-------|
D |-------3---------0---|-------3---------0---|

DISTORTION for the rest of the song.

  (Palm Muted)
e |-------------------------|
B |-------------------------|
G |-------------------------|  (x16)
D |-00000-00000-00000-00000-|
A |-00000-00000-00000-00000-|
D |-00000-00000-00000-00000-|

  Solo riff 
e |-------------------------------------|
B |-------------------------------------|
G |-------------------------------------|  (x4)
D |-77777777-33333333-88888888-00000000-|
A |-77777777-33333333-88888888-00000000-|
D |-77777777-33333333-88888888-00000000-|


  Solo: (extremely fast picking)
e |-17-17-17-17-17-17-17-17-17-17-17-17-17-17-17-17-13-13-13-13-13-13-13-13-13-13-13-13-13-13-13-13-|
B |-------------------------------------------------------------------------------------------------|
G |-------------------------------------------------------------------------------------------------|

e |-12-12-12-12-12-12-12-12-12-12-12-12-12-12-12-12-10-10-10-10-10-10-10-10-10-10-10-10-10-10-10-10-|
B |-------------------------------------------------------------------------------------------------|
G |-------------------------------------------------------------------------------------------------|

e |-------------------------------------------------------------------------------------------------|
B |-10-10-10-10-10-10-10-10-11-11-11-11-11-11-11-11-13-13-13-13-13-13-13-13-11-11-11-11-11-11-11-11-|
G |-------------------------------------------------------------------------------------------------|

e |-------------------------------------------------------------------------|
B |-10-10-10-10-10-10-10-10-6-6-6-6-6-6-6-6-3-3-3-3-3-3-3-3-3-3-3-3-3-3-3-3-|
G |-------------------------------------------------------------------------|

  "Lisa Scott" part
e |----------------------------------|
B |----------------------------------|
G |----------------------------------| (x4)
D |------------------------------7-7-|
A |---------------------5--------7-7-|
D |-0-7-8-0-7-3-0-7-8-0---8-10-7-7-7-|


e |--------------------------------------------------|
B |--------------------------------------------------|
G |-------------2------------------------------------| (x8)
D |-0--7--8--0--2--3--0--7--8--0-----8--10--7--7--7--|
A |-0--7--8--0--0--3--0--7--8--0--5--8--10--7--7--7--|
D |-0--7--8--0-----3--0--7--8--0-----8--10--7--7--7--|

  w/ Distortion
e |---------------------|---------------------|
B |---------------------|---------------------|
G |-----2---------------|-----2---------------|   (x4)
D |---3-------5---3---0-|---3-------5---3---0-|
A |-0-------3---1-------|-0-------3---1-------|
D |-------3---------0---|-------3---------0---|


e |--------------------------|
B |--------------------------|
G |-----2--------------------|  (x3)
D |---3-------5--00000-00000-|
A |-0-------3----00000-00000-|
D |-------3------00000-00000-|

  Ending
e |----------------------------------------------|
B |----------------------------------------------|
G |-----2----------------------------------------| (x1)
D |---3-------5--00000-00000-00000-00000-00000-0-|
A |-0-------3----00000-00000-00000-00000-00000-0-|
D |-------3------00000-00000-00000-00000-00000-0-|



Copyright 2002, Kidnapped Occasionally


Comments