Kid Rock - Prodigal Son Chords & Tabs

 

Prodigal Son Chords & Tabs

Kid Rock Chords & Tabs

Version: 4 Type: Tab 0 ratings
1 star 2 stars 3 stars 4 stars 5 stars
comments

Prodigal Son Tab

   
  Artist:Kid Rock
  Song Title:"Prodigal Son"
  Album Title:"The History of Rock"
  Tabbed by: Vern Boward(metallica101)
  E-mail:highvoltage16@yahoo.com

   I saw a lot of tabs for this on many sites but many
  of them were either missing parts or were just plain wrong.
  I had just learned this song from my teacher so i know its 
  99% right so dont fuck!
[ Tab from: http://www.guitartabs.cc/tabs/k/kid_rock/prodigal_son_tab_ver_4.html ]
   Main Riff
  
   E|-------------------------------------------------------|
   B|-------------------------------------------------------|
   G|-------------------------------------------------------|
   D|-----------------7-7-----------------------------------|
   A|-7-7----5-5-5----5-5--7-----3------3-------------------|
   E|-5-5----3-3-3---------5---5--5-3-5---------------------|


   This is played during the"i hold the key to my success" part

   E|------55---55------55----------------------------------|
   B|------55---55------55----------------------------------|
   G|-0-0-----0-----0-0-------------------------------------|
   D|-------------------------------------------------------|
   A|-------------------------------------------------------|
   E|-------------------------------------------------------|

  Thats it.If u have any questions, comments or shit like the just
   e-mail me>!

                      *R.I.P Joe C*
                     WE MISS YOU
Comments