Kid Rock - Picture Chords & Tabs

 

Picture Chords & Tabs

Kid Rock Chords & Tabs

Version: 6 Type: Tab 0 ratings
1 star 2 stars 3 stars 4 stars 5 stars
comments

Picture Tab

e|------------------------------------------------------------------------------
B|----------------------------------------------------12h13-12-----------15-----
G|-------------0-0-11h12-11----------11h12-11-----------------14-12-14b16--16b14
D|---------0h2--------------14-12-------------14-12-----------------------------
A|-----0-2------------------------14----------------14--------------------------
E|-3-3--------------------------------------------------------------------------

e|-14h15-14-12-------15-12----------------------------------------------------|
B|-------------15-12----------------------------------------------------------|
G|------------------------14b16-12h14p12--------------------------------------|
D|---------------------------------------12h14p12-----------------------------|
A|------------------------------------------------14-12----12------12bb-------|
E|------------------------------------------------------15----15--------------|
[ Tab from: http://www.guitartabs.cc/tabs/k/kid_rock/picture_tab_ver_6.html ]
Comments