Kid Rock - Picture Chords & Tabs

 

Picture Chords & Tabs

Kid Rock Chords & Tabs

Version: 1 Type: Tab 2 ratings
1 star 2 stars 3 stars 4 stars 5 stars
comments

Picture Tab

   
"Picture" Updated
Kid Rock (feat. Sheryl Crow)
RE-Tabbed by: PT3 (but not solo)


Intro:
e|-3-3---------3-------|	 CHORDS:
B|-3---3---3-----3---3-|	G  - 320033 or
G|-0-------------------| 2X	C  - X32010
D|-0-------------------|	D  - XX0323
A|-2-------------------|	Em - 022000
E|-3-----3---3-----3---|	

Verse 1:
                                         C                             G
Living my life in a slow hell, different girl every night at the hotel
D                             C           G
I ain't seen the sun shine in three damn days
G					       C
Been fuelin' up on cocaine and whiskey, wish I had a good girl to miss me
D                           C         G
Lord I wonder if I'll ever change my ways


Chorus:
  F#       Em                         G
I put your picture away, sat down and cried today
        D                     C             G
I can't look at you while I'm lyin' next to her
  F#       Em                         G
I put your picture away, sat down and cried today
        D                     C             G
I can't look at you while I'm lyin' next to her

Verse 2:
G                                      C
I called you last night in the hotel, everyone knows but they won't tell
           D                                   C          G
That their half-hearted smiles tell me something just ain't right
                                                                                 
G            				    C
I've been waitin' on you for a long time, fuelin' up on heartaches and cheap wine
D                           C         G
I ain't heard from you in three damn nights

Chorus:
  F#       Em                     G
I put your picture away, I wonder where you been
        D                     C             G
I can't look at you while I'm lyin' next to him
  F#       Em                     G
I put your picture away, I wonder where you been
        D                     C             G
I can't look at you while I'm lyin' next to him
[ Tab from: http://www.guitartabs.cc/tabs/k/kid_rock/picture_tab.html ]
Solo:                                             
  G                                                     C
e|------------------------------------------------------------------------------------
B|-----------------------------------------------------12h13-12------------15---------
G|-------------0-0-11h12-11----------11h12-11-------------------14-12-14b16--16b14----
D|---------0h2--------------14-12-------------14-12-------------------------------(12)
A|-----0-2------------------------14----------------14--------------------------------
E|-3-3--------------------------------------------------------------------------------
   D                      C              G
e|-14h15-14-12-------15-12----------------------------------------------------|
B|-------------15-12----------------------------------------------------------|
G|------------------------14b16-12h14p12--------------------------------------|
D|---------------------------------------12h14p12------------------X--X-------|
A|------------------------------------------------14-12----12-----14-14b15r14-|
E|------------------------------------------------------15----15--------------|

Verse 3:
G
I saw you yesterday with an old friend
           C                                  D
It was the same ole' same "how have you been"
                                       C        G
Since you've been gone my world's been dark and grey
G
You reminded me of brighter days
  C
I hoped you where comin' home to stay
      D                
I was headed to church
             C          G
I was off to drink you away
G				      C
I thought about you for a long time, can't seem to get you off my mind
D                                    C        G
I can't understand why we're living life this way

Chorus:
  F#         Em                          G
I found your picture today, I swear I'll change my ways
       D               C                      G
I just called to say I want you, to come back home
  F#         Em                          G
I found your picture today, I swear I'll change my ways
       D               C                      G
I just called to say I want you, to come back home
       D                 C                   G
I just called to say I love you, come back home

Comments