Kid Rock - I Am The Bullgod Chords & Tabs

 

I Am The Bullgod Chords & Tabs

Kid Rock Chords & Tabs

Version: 2 Type: Tab 0 ratings
1 star 2 stars 3 stars 4 stars 5 stars
comments

I Am The Bullgod Tab

kidrock
"i am the bullgod"

intro:  (with heavy destortion)
-----------------------------
-----------------------------
-----------------------------
-----------------------------
--5-5-5-2-2-2-2---2-2---2-2--
--3-3-3-0-0-0-3p0-0-3p0-0-0--
[ Tab from: http://www.guitartabs.cc/tabs/k/kid_rock/i_am_the_bullgod_tab_ver_2.html ]
guitar 2 solo: (bend when playing)-(play fast and figure out beat)
--13-13----13-13-13---13-13-13-----
--------12----------12---------12--
-----------------------------------
-----------------------------------
-----------------------------------
-----------------------------------

chorus:
----------------------------------------------------------------------
----------------------------------------------------------------------
----------------------------------------------------------------------
----------------------------------------------------------------------
--2-2-2-2-2-2-2-2-2-2-2-2-2-2-2-2-2-2-2-2-5-5-5-5-5-5-5-5-5-5-5-5-5-5-
--0-0-0-0-0-0-0-0-0-0-0-0-0-0-0-0-0-0-0-0-3-3-3-3-3-3-3-3-3-3-3-3-3-3-

-------------
-------------
-------------
-------------
5-5-5-5-5-5--
3-3-3-3-3-3--
Comments