Kid Rock - Forever Chords & Tabs

 

Forever Chords & Tabs

Kid Rock Chords & Tabs

Version: 3 Type: Tab 0 ratings
1 star 2 stars 3 stars 4 stars 5 stars
comments

Forever Tab

This is the whole song except the solo.  It was hard to tab too.
e-|--------------0-----------| Play 7x before first fill 
b-|--------------------------| riff
g-|--------------------------|	
d-|2-2-2--2-2-2----2-2-2-2-2-|
a-|2-2-2--2-2-0----2-2-2-2-2-|
e-|0-0-0--0-3-0----0-0-0-3-0-|
[ Tab from: http://www.guitartabs.cc/tabs/k/kid_rock/forever_tab_ver_3.html ]
e-|5-h4-h3---------------------------------------| FILL RIFF
b-|--------55-h4-h3-----------------------------|
g-|-------------------4---4-h3-h2----------------| 
d-|-------------------------------5--5-h4-h3-0---|
a-|----------------------------------------------|
e-|----------------------------------------------|

e-|-------------0------------| Play this 3x
b-|--------------------------|
g-|--------------------------|	
d-|2-2-2--2-2-2---2-2-2-2-2-|	
a-|2-2-2--2-2-2---2-2-2-2-2-|
e-|0-0-0--0-3-0----0-0-0-3-0-|

Then play e-|-6-----------------| (hold it for 2 beats)

This is the chorus too.
e-|-------------0-----------|
b-|-------------------------|
g-|-------------------------|
d-|2-2-2--2-2-2--2-2-2-2-2-|
a-|2-2-2--2-2-2--2-2-2-2-2-|
e-|0-0-0--0-3-0---0-0-0-3-0-|
Comments