Kid Rock - Dark And Grey Chords & Tabs

 

Dark And Grey Chords & Tabs

Kid Rock Chords & Tabs

Version: 4 Type: Tab 0 ratings
1 star 2 stars 3 stars 4 stars 5 stars
comments

Dark And Grey Tab

Ok ppl blah blah bubba_blink@hotmail.com

Im positive this is THE way to play it. E mail me and let me know what you think.

e]---------------------------------------||-------------------------------||
B]---------------------------------------||-------------------------------||
G]---------------------------------------||-------------------------------||
D]----0------3p0-----5p0-----6-----5-3p0-||-------3-0-5-0-1-1-1-1-0h1-0h1-||
A]----0--0-0-3p0-0-0-5p0-0-0-6-0-0-5-3p0-||-0-0-0-3-0-5-0-1-1-1-1---------||
D]----0--0-0-3p0-0-0-5p0-0-0-6-0-0-5-3p0-||-0-0-0-3p0-5p0-1-1-1-1---------||
P.M.     . .     . .     . .   . .          . . .         . . . . 
 
one guitar starts, then after 2x of playing it then a second joins in   then both play...
[ Tab from: http://www.guitartabs.cc/tabs/k/kid_rock/dark_and_grey_tab_ver_4.html ]
e-------------------------------------------|--------------------------||
B-------------------------------------------|--------------------------||
G-------------------------------------------|--------------------------||
D-------------------------------------------|--------------------------||
A--10-------10/5-------5/3--0-0-0-0-0-0-0-0-|-10-10---10--10--10--10~~~||
D--10-------10/5-------5/3--0-0-0-0-0-0-0-0-|-10-10---10--10--10--10~~~||
P.M.                        . . . .   . . .           ..      ..

e]---------------------------------||
B]---------------------------------||
G]---------------------------------||
D]-0--3-2--0--3-2--0--3-2-0--5-5-5-||
A]-0--3-2--0--3-2--0--3-2-0--5-5-5-||
D]---------------------------------||

Then play the first thing again.
Comments