Kid Rock - Dark And Grey Chords & Tabs

 

Dark And Grey Chords & Tabs

Kid Rock Chords & Tabs

Version: 3 Type: Tab 0 ratings
1 star 2 stars 3 stars 4 stars 5 stars
comments

Dark And Grey Tab

     howdy,this is the right version of kid rock's "dark and grey",it
is D-tunned.....ne ?'s or comments send to mug30241@hotmail.com....
have fun and enjoy,all you honkies........

            Intro-repeat 6 times
[---------------------------------------------------------]
[---------------------------------------------------------]
[---------------------------------------------------------]
[-2----5----7----8----7---5---2----5----7----333--2-3-2-3-]
[-2----5----7----8----7---5---2----5----7----333----------]
[-0-00-3-00-5-00-6-00-5-0-3-0-0-00-3-00-5-00-111----------]

 PART 1(RING)        PART2                 PART3(MUTE)
[------------][----------------------] [-----------------]
[------------][----------------------] [-----------------]
[----7-------][----------------------] [-9-7-9-7-9-7-9-7-]
[-2--7--7--5-][---------2--7---7---7-] [-7-7-7-7-7-7-7-7-]
[-2--5--7--5-][---------2--7---7---7-] [-----------------]
[-0-----5--3-][-3333333-0--5-5-5-5-5-] [-----------------]
                (mute)

p=pull off  h=hammer on  B=bend (PART 4)
[-------------------------------------------]
[---------------------------10-B-(10)-p-8---]
[--7h9-9-7h9-9-7h9-9-7h9-9----------------9-]
[--7---7-7---7-7---7-7---7------------------]
[-------------------------------------------]
[-------------------------------------------]

[ Tab from: http://www.guitartabs.cc/tabs/k/kid_rock/dark_and_grey_tab_ver_3.html ]
           pre-verse
[--------------------------------------------------------------------------]
[--------------------------------------------------------------------------]
[--------------------------------------------------------------------------]
[-2----5----7----222--5-slide-7-5--8----7----5-222-575--888---7--5--7~~~~~~]
[-2----5----7----222--5-------7-5--8----7----5-222-575--888---7--5--7~~~~~~]
[-0-00-3-00-5-00-000--3-------5-3--6-00-5-00-3-000-353--666---5--3--5~~~~~~]


 verse is the same as the intro.THEN PLAY PART 1 TWICE AND THEN PLAY THE PREVERSE,
THEN PLAY THIS WHILE THE BANJO IS PLAYING...


[---------------------------------]
[---------------------------------]
[------7---------------12--11--10-]
[-2----7---7---5---2---12--11--10-]
[-2----5---7---5---2---10---9---8-]
[-0--------5---3---0--------------]

[--------------------------------------------------------------]
[--------------------------------------------------------------]
[--------------------------------------------------------------]
[-----------------7-9------------------------------------------]
[-----------------7-9------------------------------------------]
[-2H3P2--0--2H3P2-5-7--2H3P2--0--3P0--0--5P0-0-7P0--00--10--12-]

   THEN PLAY THE INTRO...
   THEN PLAY PART 1 TWICE...
   THEN PLAY THE PREVERSE...
   THEN PLAY THIS.....
                              PLAY A BUNCH
PLAY INTO THE NEXT PART     UNTILL THE SONG
  TILL THE END                  IS OVER          END WITH THIS
[---------------------------][--2--2----]    [---------------------------]
[---------------------------][--3--3----]    [---------------------------]
[----------2----------------][--2--2----]    [---------------------------]
[-5-P-2--2---22-------------][--------2-]    [---------------------------]
[---------------5-P-2-5-P-2-][--------2-]    [---------------------------]
[---------------------------][--------0-]    [-3P0-0-5P0-0-7P0-00-10--12-]
Comments