Kid Rock - Dark And Grey Chords & Tabs

 

Dark And Grey Chords & Tabs

Kid Rock Chords & Tabs

Version: 2 Type: Tab 0 ratings
1 star 2 stars 3 stars 4 stars 5 stars
comments

Dark And Grey Tab

   
Words and music by Robert ‘Kid Rock’ Ritchie
All guitars with dropped D tuning 

Chords = D5, F5, G5, Ab5, Eb5, C5, E5, F5 type 2


Played with distortion and slight P.M.

Guitar 1
----------------------------------------------------------------------------------------------------------------------------
----------------------------------------------------------------------------------------------------------------------------
----------------------------------------------------------------------------------------------------------------------------
-0-0-0-3—0—0—5—0—0—6—0—0—5—0—3—0—0—0—0—0—3—0—5—0—0—1—1-1-0-1-0
-0-0-0-3—0—0—5—0—0—6—0—0—5—0—3—0—0—0—0—0—0---0—5—0—0—1—1-1-0-1-0
-0-0-0-3—0—0—5—0—0—6—0—0—5—0—3—0—0—0—0—0—0---0—5—0—0—1—1-1-0-1-0

Guitar 2
---------------------------------------------------------------------------------------------------------------------------
-------------------------------------------------------------------------------------------------------------------------
--------(3)-----------------------------------------------------------------------------------------(3)--------------------
-------------------------------------------------------------------------------------------------------------------------
--------------------------------------------------------------------------------------------------------------------------
---------------------------------------------------------------------------------------------------------------------------

Guitars 1 + 2
---------------------------------------------------------------------------------------------------------------------------
-------------------------------------------------------------------------------------------------------------------------
--------------------------------------------------------------------------------------------------------------------------
----0-----------------0----------/ 10---------------------10 \----5--------------5 \-----3-------------3-3-3-3-3-3-3-
----0-----------------0----------/ 10---------------------10 \----5--------------5 \-----3-------------3-3-3-3-3-3-3-
----0-----------------0----------/ 10---------------------10 \----5--------------5 \-----3-------------3-3-3-3-3-3-3-


---------------------------------------------------------------------------------------------------------------------------
------------------------------------------------------------------------------------------------------------------------
------------------------------------------------------------------------------------------------------------------------
-----0---------------0----/ 10-----10--*--*--10--------------10--12--12--10-12-12--10-12--12-10-12 12-12---
-----0---------------0----/ 10-----10--*--*--10--------------10-------10--10-----10--10------10-10-----10-10---
-----0---------------0----/ 10-----10--*--*--10---------------------------------------------------------------------


-------------------------------------------------------------------------------------------------------------------------
----------------------------------------------------------------------------------------------------------------------
----10-12-12-10-12-12-10-12-12-*--12—(12)-10------------------------------------------------------------
----10-12-12-10-12-12-10-12-12-*------------------12-\-------------------------------------------------------
----10-----12-------------------------*-------------------------5-0-0-3-1-1-0-0-0-0-0-0-3-/-5----3------------
------------------------------------------------------------------5-0-0-3-1-1-0-0-0-0-0-0-3-/-5----3---------------


----------------------------------------------------------------------------------------------------------------------------------------------------------------------------------------------------------------------------------------------------------------------------------------------------------------------------------------------------------------------------------------------------------------------------------------------------------------------------------------------------------------6-0-0-5-0-0-3-0-0-0-0-0-3-5-3-0-6-0-0-5-0-0-3-0-0-0-0-0-3-5-3-----------------------------------------------
6-0-0-5-0-0-3-0-0-0-0-0-3-5-3-0-6-0-0-5-0-0-3-0-0-0-0-0-3-5-3-----------------------------------------------





----------------------------------------------------------------------------------------------------------------------------------------------------------------------------------------------------------------------------------------------------------------------------------------------------------------------------------------------------------------------------------------------------------------------------------------------------------------------------------------------------------------
---6-6-6-5---------3-5------------------------------------------------------------------------------------------------
---6-6-6-5---------3-5------------------------------------------------------------------------------------------------





----------------------------------------------------------------------------------------------------------------------------
---------------------------------------------------------------------------------------------------------------------------------------------------------------------------------------------------------------------------------------12-(12)-10---
--10-12-12-10-12-12-10-12-12-10-12-12-10-12-12-10-12-12-10-12-12-10-12-12-10-12---------------12
--------------------------------------------------------------------------------------------------------------------------------------------------------------------------------------------------------------------------------------------------------

[ Tab from: http://www.guitartabs.cc/tabs/k/kid_rock/dark_and_grey_tab_ver_2.html ]
----------------------------------------------------------------------------------------------------------------------------
--------------------------------------------------------------------------------------------------------------------------------------------------------------------------------------------------------------------------------------------------------
--10-12-12-10-12-12-10-12-12-10-12-12-10-12-12-10-12-12-10-12-12-10-12-12-10-12-----12----12---
--------------------------------------------------------------------------------------------------------------------------------------------------------------------------------------------------------------------------------------------------------

*Bass then plays E

Banjo Solo (played on guitar live)
(Guitar 2 plays D5 throughout)

---------------------------3--5-------3---------------------------------------------------------------------------------
-----3----1-------3---------------------------3------1----3--1-----------------------------------------------------
--------2---------------------------------2-------2------0--2--0-2-0---------------------------------------------
--0-----------0-------0----------0------------------------------------3-0-0------0-------------------------------
-------------------------------------------------------------------------------3-0------0---------------------------
----------------------------------------------------------------------------------------------------------------------

-------------------------------------------1----3----1---------------------1-------------------------------
------------------------------1-3----1---------------------3----1---3-------------------------------------
-------------------0---2--0-------2---0----2----2-----2----0----2---2-------2-------------------------
-------------0------0------------------------------------------------------------------------------------
---3-0-0-0----0----------------------------------------------------------------------------------------
--------------------------------------------------------------------------------------------------------

---3---5--3--1--3--1----------------------------------------------------------------------
--------------------------------3-----1--------------------------------------------------------
-----2---2--2--2--2--------2----0---------5------2---------------2---------0-------------------
-------------------------------------------0-----0-----5-0-3-0-5-----5-3-0----0-3---------------
----------------------------------------------------------------------------------------------3-----
------------------------------------------------------------------------------------------------------

------------------------------------1-----3----5----3-------1----3---1---------1----3---1-------------
---------------1----3---3----3---------------------------------0---0------3-0-----0---0---0-3—1-0---
--0-2-2-2-0----2----2---2----2----2-----2-----2----*----------------2-----------------------2------
------------------------------------------------------------------------------------------------------------------------
-----------------------------------------------------------------------------------------------------------------------
-----------------------------------------------------------------------------------------------------------------





Guitar 1 (Played with banjo)

---------------------------------------------------------------------------------------------------------------------------
-------------------------------------------------------------------------------------------------------------------------
------------------------------------------------5-/-7---7--------------------------------------------------------------
------------------------------------------------5-/-7---7------------------------------------------------------
------------------------------------------------3-/-5---5-----------------------------------------------------
----7-(7)-5-----------------7-(7)-5-------------------------7-(7)-5--------------------------------

---------------------------------------------------------------------------------------------------------------------------
-------------------------------------------------------------------------------------------------------------------------
------------------------------------------------5-/-7---7--------------------------------------------------------------
------------------------------------------------5-/-7---7------------------------------------------------------
------------------------------------------------3-/-5---5-----------------------------------------------------
----2-(2)-0-----------------2-(2)-0-------------------------2-(2)-0--------------------------------




(Drum build up here)


-----------------------------------------------------------------------------------------------------------------------------------------------------------------------------------------------------------------------------------------------------------------------------------------------------------------------------------------------------------------------------------------------------------------------------------------------------------------12---\----------------------------------------------------------------------------------------------------------------------12--\-------------------------- --------------
----------------------3—0—0—5—0—0—7—0—0—10—0—0—12--\---------------------------------------

-----------------------------------------------------------------------------------------------------------------------------------------------------------------------------------------------------------------------------------------------------------------------------------------------------------------------------------------------------------------------------------------------------------------------------------------------------------------12---\----------------------------------------------------------------------------------------------------------------------12--\-------------------------- --------------
----------------------3—0—0—5—0—0—7—0—0—10—0—0—12--\---------------------------------------


Guitar 2
----------------------------------------------------------------------------------------------------------------------------------------------------------------------------------------------------------------------------------------------------------------------------------------------------------------------------------------------------------------------------------------------3-0-0-5-0-0------------3-0-0-5-0-0-----------3-0-0-5-0-0-----------3-0-0-5-0-0--------------------
-------------------------3-0-3-0-----------------3-0-3-0----------------3-0-3-0----------------3-0-3-0---------
--------------------------------------------------------------- -------------------------------------------------------
(Played 8 times each note bent into next until fade out)

* = Palm mute
/ \ = Slides

Comments