Kid Rock - Cowboy Chords & Tabs

 

Cowboy Chords & Tabs

Kid Rock Chords & Tabs

Version: 6 Type: Tab 0 ratings
1 star 2 stars 3 stars 4 stars 5 stars
comments

Cowboy Tab

hello.. i'm brazilian, so my engligh is very poor 'cuz this I had wrote it in
portuguese too... it's not so right, if you find some mistake please tell me

intro:

Cowboy....

e||---------------------|
B||----8^---------------|
G||----7^---------------|
D||---------------------|
A||---------------------|
E||---------------------|

e||-------------------------------|
B||-------------------------------|
G||-------------------------------|
D||---x-x-x-x-x-x-5/7-7-7-x-5-x-7-|3X
A||---x-x-x-x-x-x-5/7-7-7-x-5-x-7-|
E||---x-x-x-x-x-x-3/5-5-5-x-3-x-5-|

e||------------------10----10-----|
B||---------------12^---12^-------|
G||-------------------------------|
D||-------------------------------|
A||-------------------------------|
E||-------------------------------|

e||-----------------|
B||-----------------|
G||-----------------|
D||--x-x-x-x------5-|
A||--x-x-x-x---3--5-|
E||--x-x-x-x-5------|

Verso:
        
||-----------------------------------------------------|
||-----------------------------------------------------|
||--------2------------2-----------2-x-x-2h4-x-x-2h4-2-|
||----2h4------4p2-------------2h4---------------------|
||--0--------------3h0---x-x-0-------------------------|
||-----------------------------------------------------|
[ Tab from: http://www.guitartabs.cc/tabs/k/kid_rock/cowboy_tab_ver_6.html ]
||-------------------------------------------------------|
||--------------------------------------------5*---------|*vai intercalando, uma vez E(5) e 
||--------2-----------2-------------2-x-x-2/6-x--6p4/2---| na otra A(5 da primera corda)./
||----2h4-----4p2-------------2h4------------------------| one time you play this note (5, E),
||--0-------------3h0---x-x-0----------------------------| and other A.
||-------------------------------------------------------|

nessa parte muda o tom... (0:42)
"give a toast to the sun, trip whit the stars.."
volta ao riff acima/back to before riff (0:52)
"..come back home" 

Refrão/chours (1:04) :

e||-------------------------------|
B||-------------------------------|
G||-------------------------------|
D||---x-x-x-x-x-x-5/7-7-7-x-5-7-7-| 3X
A||---x-x-x-x-x-x-5/7-7-7-x-5-7-7-|
E||---x-x-x-x-x-x-3/5-5-5-x-3-5-5-|

Fim do refrão/end of chours (1:28):
e||-------------------|
B||-------------------|
G||-------------7-----|
D||------3-5----7----\|
A||--5^r-------------\|
E||------------------\|


Antes da parte do piano/before piano part (2:20):
e||-----------------------|
B||-----------------------|
G||-------------7^r7^r7^\-|
D||--------3-5------------|
A||--5~~~~----------------|
E||-----------------------|

Depois fique brincando na escala de F#m eh muito foda escreve isso numa tab..
this solo is hard to catch and write, but i think that's in F#m scale.. try
yourself...
hope you enjoy this tab or just undrstand what i tried to write
Comments