Kid Rock - Cowboy Chords & Tabs

 

Cowboy Chords & Tabs

Kid Rock Chords & Tabs

Version: 5 Type: Tab 0 ratings
1 star 2 stars 3 stars 4 stars 5 stars
comments

Cowboy Tab

NOTE:This song is played a half - step lower than standard tuning.

Intro
-----------------------------------
-----------------------------------
-----------------------------------
-----------------------------2--5--
----xxxx3/5-5-3-5--------5---5--7--
----xxxx5/7-7-5-7-(x 3)--7---------
[ Tab from: http://www.guitartabs.cc/tabs/k/kid_rock/cowboy_tab_ver_5.html ]
Verse
------------------------------------------------------------------
-------------------------------------------------------0----------
--------2----2-----2-5-2-2-----2---------2-------2-5/7---7-5-2----
-----2h5-5p2----2h5-----5---2h5----5p2--------2h5-----------------
---0--------5--0-----------0-----------5----0---------------------
------------------------------------------------------------------
Verse pt. 2
-----2---2--3--3--2--2--0--0--2--2--3--3--------------
------3---3--3--3--3--3--3--3--3--3--3--3-------------
---2----2--2--2--2--2--2--2--2--2--2--2--2------------
------------------------------------------------------
------------------------------------------------------
------------------------------------------------------
(listen to song for right amount of plays.)
Chorus
--------------------------------------------------
--------------------------------------------------
--------------------------------------------------
--------------------------------------------------
----3/5-5-3-5-------------------------------------
----5/7-7-5-7-------------------------------------
(x4 if i remember right)


Thats the jist of this song.
Tabbed out by David
Email me at: HondaSpeed188@hotmail.com
Keep playing!
Comments