Kid Rock - Cowboy Chords & Tabs

 

Cowboy Chords & Tabs

Kid Rock Chords & Tabs

Version: 1 Type: Tab 1 rating
1 star 2 stars 3 stars 4 stars 5 stars
comments

Cowboy Tab

#----------------------------------PLEASE
NOTE--------------------------------#
#This file is the author's own work and represents their interpretation
of the#
#song. You may only use this file for private study, scholarship, or
research.#
#-----------------------------------------------------------------------------#
#-- File created with Instab -
http://www.pconline.com/~smcarey/instab.html --#
#-----------------------------------------------------------------------------#

Author/Artist: Kid Rock
Title: Cowboy
Album: Devil Without A Cause
Transcribed by: Rob
Email: Korncrypt@hotmail.com

Email me any suggestions. additions or corrections
visit my web page at drive.to/euphoria
[ Tab from: http://www.guitartabs.cc/tabs/k/kid_rock/cowboy_tab.html ]
----------------------------|
----------------------------|
-------0-0-----0---0--------|  lead ??
-x-x-x-3/5-x-x-5-x-3-x-5----|
-x-x-x-3/5-x-x-5-x-3-x-5----|
-x-x-x-1/3-x-x-3-x-1-x-3----|
                             

--------------|--------------------4------------
--------------|--------------------4------------
--------------|--------------------5------------
--------4-----|--------------------6------------
-----2--4-----|--------------------6------------
--4-----------|--------------------4------------
 fill            verse (not sure) i think he's just picking out this
chord

--------------|------------------------------
--------------|------------------------------
--------------|------------------------------
-----------4--|---x-x-x-4/6-x-x-6-x-4-x-6----
---/5--6------|---x-x-x-4/6-x-x-6-x-4-x-6----
--------------|---x-x-x-2/4-x-x-4-x-2-x-4----
 fill           chorus                       

------------------|
------------------|
------------------|  lead-no clue  
--5-x-x-5-x--5/9--|
--5-x-x-5-x--5/9--|
--3-x-x-3-x--3/7--|                  
Comments