Kid Rock - Bawitdaba Chords & Tabs

 

Bawitdaba Chords & Tabs

Kid Rock Chords & Tabs

Version: 2 Type: Tab 0 ratings
1 star 2 stars 3 stars 4 stars 5 stars
comments

Bawitdaba Tab

   
Author/Artist: Kid Rock              
Title: Bawitdaba

A) Intro:Gtr.1:

E|--------------------------------------------------------------------------|
B|---^^^^^^^^^^^^^^^^^^^^^^^^^^^^^^^^^^^^^^^^^^^^^^^^^^^^^^^^^^^^^^^^^------|
G|---9-----------------------------9----------------------------------9\----|
D|--------------------------------------------------------------------------|
A|---7-----------------------------7----------------------------------7\----|
E|--------------------------------------------------------------------------|
                                                                              

E|--------------------------------------------------------------------------|
B|---^^^^^^^^^^^^^^^^--^^^^^^^^^^^^^^^^-------------------^^^^^^^^^^--------|
G|---12----------------9------------------9\--------------9---------9/12----|
D|---11----------------8----------------------------------------------------|
A|---10----------------7------------------7\--------------7---------7/10----|
E|--------------------------------------------------------------------------|
                                                                              

E|--------------------------------------------------------------------------|
B|---------------------^^^^^^^^^^^^^^^--------------------------------^^^^^^|
D|---------------------8----------------------------------8---8/11----11----|
A|---10----------------7------------------7\6\------------7---7/10----10----|
E|--------------------------------------------------------------------------|
                                                                              

E|--------------------------------------------------------------------------|
B|---^^^^^^^^^^^^^^^---^^^^^^^^^^^^^^^^^^^^^^^------------^^^^^^^^^---------|
G|---12----------------9-----------------9---9\-----------12----------------|
D|---11---------------------------------------------------11----------------|
A|---10----------------7-----------------7---7\-----------10-------10/13----|
E|--------------------------------------------------------------------------|
                                                               My name is     

E|---0--0--0--0--0--0--0--0--0--0--0--0--0--0--6--6--6--6--6--6--6--6--6--6-|
B|---5--5--5--5--5--5--5--5--5--5--5--5--5--5--5--5--5--5--5--5--5--5--5--5-|
G|--------------------------------------------------------------------------|
D|--------------------------------------------------------------------------|
A|--------------------------------------------------------------------------|
E|--------------------------------------------------------------------------|
                                                                              

E|---6--6--6--0--0--0--0--0--0--0--0--0--0--0--0--0--0--0--6--6--6--6--6--6-|
B|---5--5--5--5--5--5--5--5--5--5--5--5--5--5--5--5--5--5--5--5--5--5--5--5-|
G|--------------------------------------------------------------------------|
D|--------------------------------------------------------------------------|
A|--------------------------------------------------------------------------|
E|--------------------------------------------------------------------------|
                                                                              

E|---6--6--6--6--6--6------------------------------------------------------||
B|---5--5--5--5--5--5------------------------------------------------------||
G|-------------------------------------------------------------------------||
D|---------------------0--0------------------------------------------------||
A|---------------------0--0------------------------------------------------||
E|-------------------------------------------------------------------------||
 
B) Chorus:Gtr.2:                                                                      

E|--------------------------------------------------------------------------|
B|---------------------------------------------------------0----------------|
G|----------------------------------------------------------------0---------|
D|---2--2--------5\2----2-------5----2--2-------5--5\3--------------------3-|
A|---2--2--------5\2----2-------5----2--2-------5--5\3--------------------3-|
E|---0--0-----0--3\0----0----0--3----0--0----0--3--3\1--------------------1-|
                                                                              

E|--------------------------------------------------------------------------|
B|--------------------------------------------------------------------------|
G|--------------------------------------------------------------------------|
D|---2--2--------5-----2--2--------5\----2--2----2--5--------3---3---3---3--|
A|---2--2--------5-----2--2--------5\----2--2----2--5--------3---3---3---3--|
E|---0--0-----0--0-----0--0-----0--3\----0--0----0--3-----0--1---1---1---1--|
                                                                              

E|--------------------------------------------------------------------------|
B|---3--3-----x--3-----3--3----x--3--3---3--3--x-3--3-----------0-----------|
G|---3--3-----x--3-----3--3----x--3--3---3--3--x-3--3---------------0--0--0-|
D|---------------------------------------------------------------------3--3-|
A|------------------------------------------------------------3--------3--3-|
E|--------------------------------------------------------0h1----------1--1-|
                                                                              

E|-------------------------------------------------------------------------||
B|---3--3-----x--3-----3--3----x--3--3---3--3---x---3----------------------||
G|---3--3-----x--3-----3--3----x--3--3---3--3---x---3----------------------||
D|--------------------------------------------------------3----3----3----3-||
A|--------------------------------------------------------3----3----3----3-||
E|-----------------------------------------------------0--1----1----1----1-||
 
C) Verses:Gtr.1:                                                                      

E|--------------------------------------------------------------------------|
B|--------------------------------------------------------------------------|
G|--------------------------------------------------------------------------|
D|--------------------------------------------------------------------------|
A|-------------------------------------5h7----------------------------------|
E|---0------------------------------0-------0-------------0-----3h5--3h5----|
                                                                              

E|--------------------------------------------------------------------------|
B|--------------------------------------------------------------------------|
G|--------------------------------------------------------------------------|
D|--------------------------------------------------------------------------|
A|-------------------------------------------5h7----------------------------|
E|---0------------------0----0----0----0------------------------------------|
  
Gtr.2:                                                                      

E||-------------------------------------------------------------------------|
B||-------------------------------------------------------------------------|
G||o--------------9-9-9----------------9-9\7-7-7--7/12---12--12----12--12/15|
D||o------------------------------------------------------------------------|
A||---------------7-7-7----------------7-7\5-5-5--5/10---10--10----10--10/13|
E||--0----------------------------------------------------------------------|
                                                                              
[ Tab from: http://www.guitartabs.cc/tabs/k/kid_rock/bawitdaba_tab_ver_2.html ]
E|--------------------------------------------------------------------------|
B|--------------------------------------------------------------------------|
G|-15-------15-15-13\-------------------------------------------------------|
D|--------------------------------------------------------------------------|
A|-13-------13-13-15\-------------------------------------------------------|
E|--------------------------------------------------------------------------|
 
Gtr.1:                                                                       

E||-------------------------------------------------------------------------|
B||-------------------------------------------------------------------------|
G||o------------------------------------------------------------------------|
D||o------------------------------------------------------------------------|
A||----------------------------------5h7------------------------------------|
E||---0--------0----0----0----0-----------0------0----0----0----0---3h5-3h5-|
                                                                     

E|-------------------------------------------------------------------------||
B|--------------^^^^^^^^^^^^^^^^^^^^^-0------------------------------------||
G|----------9-9-9---------------------0--7h9p7------0---0---------------0-o||
D|---------------------------------------------9--8p0-7p0--5h7p5-b7--5--0-o||
A|----------7-7-7----------------------------------------------------------||
E|---0---------------------------------------------------------------------||
 
Gtr.2:                                                                       

E|-------------------------------------------------------------------------||
B|-------------------------------------------------------------------------||
G|------------------------------------------------------------------------o||
D|------------------------------------------------------------------------o||
A|----------------------------------5h7--5h7p5-----------------------------||
E|---0------------0------0----0----------------7--5\3------3h5--3--b5--3---||
 
Gtr.1:                                                                       

E|--------------------------------------------------------------------------|
B|--------------^^^^^^^^^^^^^^^^^^^^^---------------------------------------|
G|----------9-9-9--------------------/15---14-------------------------------|
D|-----------------------------------------0--------------------------------|
A|----------7-7-7--------------------/13---0--------------------------------|
E|---0----------------------------------------------------------------------|
 
Gtr.2:                                                                       

E|--------------------------------------------------------------------------|
B|--------------------------------------------------------------------------|
G|--------------------------------------------------------------------------|
D|--------------------------------------------------------------------------|
A|-------------------------------------------5h7----------------------------|
E|---0----0--0---0--0--0--0----0--0--0--0--0--------------------------------|
 
Gtr.1:                                                                       

E|--------------------------------------------------------------------------|
B|--------------------^^^^^^^^^^^^^^^^^^^^^^--------------------------------|
G|----------9-9-9--9--9---------------------/0------------------------------|
D|-------------------------------------------0------------------------------|
A|----------7-7-7--7--7---------------------/-------------------------------|
E|---0----------------------------------------------------------------------|
 
Gtr.2:                                                                       

E|--------------------------------------------------------------------------|
B|--------------------------------------------------------------------------|
G|--------------------------------------------------------------------------|
D|--------------------------------------------------------------------------|
A|---------------------------------------------5h7--------------------------|
E|---0-------------0-----0----0----0----0----0------------------------------|

D) 1st Breakdown:Gtr.1:                                                         

E||------------------------------------------------------------------------||
B||------------------------------------------------------------------------||
G||0----------------------------------------------------------------------o||
D||0--2--2-----2----2--2--2----2-------------2--2-----2----2--2--2--------o||
A||---2--2-----2----2--2--2----2-------^^^^^-2--2-----2----2--2--2---------||
E||---0--0-----0----0--0--0----0----0-b3-----0--0-----0----0--0--0---------||
 
E) Chorus:Gtr.2:                                                                

E||-------------------------------------------------------------------------|
B||-------------------------------------------------------------------------|
G||o------------------------------------------------------------------------|
D||o--2--2-----2----2--2--2----2-------5-----2--2-----2---2--2--2-----------|
A||---2--2-----2----2--2--2----2-------5-----2--2-----2---2--2--2--^^^^^^^^-|
E||---0--0-----0----0--0--0----0----0--3-----0--0-----0---0--0--0--3--------|
 
Gtr.1:                                                                       

E||-------------------------------------------------------------------------|
B||-------------------------------------------------------------------------|
G||o------------------------------------------------------------------------|
D||o--2--2-----2----2--2--2----2-------------2--2-----2---2--2--2-----------|
A||---2--2-----2----2--2--2----2-------^^^^^-2--2-----2---2--2--2-----------|
E||---0--0-----0----0--0--0----0----0--3-----0--0-----0---0--0--0-----------|
 
Gtr.2:                                                                       

E|-------------------------------------------------------------------------||
B|-------------------------------------------------------------------------||
G|-----------------------------------------------------------------0--0---o||
D|----2--2-----2----2--2--2----2-------5-----2--2-----2---2--2--2--0--0---o||
A|----2--2-----2----2--2--2----2-------5-----2--2-----2---2--2--2----------||
E|----0--0-----0----0--0--0----0----0--3-----0--0-----0---0--0--0----------||
 
Gtr.1:                                                                       

E|-------------------------------------------------------------------------||
B|-------------------------------------------------------------------------||
G|------------------------------------------------------------------------o||
D|----2--2-----2----2--2--2----2-------------2--2-----2---2--2--2---------o||
A|----2--2-----2----2--2--2----2-------^^^^^-2--2-----2---2--2--2--^^^^^^^^||
E|----0--0-----0----0--0--0----0----0--3-----0--0-----0---0--0--0--3-------||
 
F) 2nd Breakdown:Gtr.2:                                                         

E|-------------------------------------------------------------------------||
B|-------------------------------------------------^^^^^^^^^^^^^^^^^^------||
G|-------------------------------------------------7-----------------------||
D|---2--2------2--2------2--2------2--2------------------------------------||
A|---2--2------2--2------2--2------2--2------------------------------------||
E|---0--0---0--0--0---0--0--0---0--0--0---0---0----------------------13\---||
 
G) Outro Chorus:Gtr.2:                                                                             

E|------------------------------------------------------------------------|||
B|------------------------------------------------------------------------|||
G|-----------------------------------------------------------------------o|||
D|---3------3--------3------3-----2--------------------------------------o|||
A|---3------3--------3------3-----2---------------------------------------|||
E|---1------1--------1------1-----0---------------------------------------|||                                                                              

Comments