Kid Rock - American Bad Ass Chords & Tabs

 

American Bad Ass Chords & Tabs

Kid Rock Chords & Tabs

Version: 6 Type: Tab 0 ratings
1 star 2 stars 3 stars 4 stars 5 stars
comments

American Bad Ass Tab

id say this song is done as a drop-D tuning! but i might be wrong!

intro: - play 2 times

     PM.......
-----------------------------------------------------------
-----------------------------------------------------------
-----------------------------------------------------------
---2---2-2-2----3----3-----2------7----6-----5---3h5-------
---2---2-2-2----3----3-----2-------------------------------
---0---0-0-0----1----1-----0-------------------------------

main riff, this part is the whole song!

[ Tab from: http://www.guitartabs.cc/tabs/k/kid_rock/american_bad_ass_tab_ver_6.html ]
      PM........
-----------------------------------------------------------
-----------------------------------------------------------
-----------------------------------------------------------
--2------2--2--2-------------------------------------------
--2------2--2--2-------------------------------------------
--0------0--0--0----6p----4po----2po----------------------


thats it really, jus play that riff all the way through the song! kidrock has the fast
part with bells in it too! but cant do that!!  but this 1 is perfect if u play 2
metallica! i shoulda put it there but i like kidrock more and its the same anyway!
so, let me know what u think! an rate it plzzzzzzz!!  thanx!
i will try and work out the lead that plays on the last chorus! but im more of a rhythm
guitarist!!

lee.
Comments