Kid Rock - American Bad Ass Chords & Tabs

 

American Bad Ass Chords & Tabs

Kid Rock Chords & Tabs

Version: 2 Type: Tab 0 ratings
1 star 2 stars 3 stars 4 stars 5 stars
comments

American Bad Ass Tab

song:american badass  
artist:kid rock
album:the history of rock

intro with singing...........
     P.M..           P.M.. 
-----------------------------------------------------   }             
-----------------------------------------------------   }
-2---2-2-2--3---3-2--2-2-2--7-6-5--3-5-3-5-3s5-3s5-3s5  }
-2---2-2-2--3---3-2--2-2-2---------------------------   } play
-0---0-0-0--1---1-0--0-0-0---------------------------   }
-----------------------------------------------------   }
                                                        }only
     P.M..                                             } --------------------                                    }   
--------------------                                    }
-2---2-2-2--3---3-2-                                    }once
-2---2-2-2--3---3-2-                                    }
-0---0-0-0--1---1-0-                                    }
--------------------                                    }

================
are u scared?

devil without cause.............
[ Tab from: http://www.guitartabs.cc/tabs/k/kid_rock/american_bad_ass_tab_ver_2.html ]
[play 4 times i think ][play 1 time]         }
    P.M                    P.M               }
----------------------I-------------------   }keep
----------------------I-------------------   }
----------------------I-------------------   }reapeeting 
----------------------I-------------------   } 
-2--2-2--5\0-1\0------I-2--2-2--5-0-5-5---   }  
-0--0-0----------3\0--I-0--0-0------------   }those    
                                             }                       
[play 1 time]                                }3
       P.M                                   }
---------------------------------            }parts
---------------------------------            }
---------------------------------            }over&over
-------------------------------/--           }                              
----2--2-2--5-0-5-5---5-0-5-5b/---           }
----0--0-0-----------------------            }





====================================
the metal part with the bells
 P.M........
----------------------------------------------
--------------------------------------------------
----------------------------------------------------
-2\2\2\2\2\2\5\5\5\5--------------------------------
-2\2\2\2\2\2\5\5\5\5--------------------------------
-0\0\0\0\0\0\3\3\3\3--------------------------------
==============================================



e--11h14p11h14p11h14p11h14-etc--------------------------------------------- 
b---------------------------11h14p11h14p11h14p11h14-etc-------------------- 
g-------------------------------------------------------11-13-13brp11------ 
d---------------------------------------------------------------------13--- 
a-------------------------------------------------------------------------- 
e---------------------------------------------------------------------


Comments