Kid Dynamite - Showoff Chords & Tabs

 

Showoff Chords & Tabs

Kid Dynamite Chords & Tabs

Version: 1 Type: Tab 0 ratings
1 star 2 stars 3 stars 4 stars 5 stars
comments

Showoff Tab

KId Dynamite - showoff
Tabbed By: Sean
EMail: kpsnyder@pacbell.net


intro
e-------------------------
b-------------------------
g-------------------------
d-4-6-7-------------------
a-2-4-5-7------------------
E-------5------------------
pickslide

verse

e------------
b-----------
g-----------
d---6---7------
a-7-4-5-5--------
E-5---3--------

chorus
[ Tab from: http://www.guitartabs.cc/tabs/k/kid_dynamite/showoff_tab.html ]
e----------------------------------------
b----------------------------------------
g------------x2--------------------------
d-------6-7------------6-7---6---7-------
a-2---4-4-5------2---4-4-5-7-4-7-5-------goes from chorus into intro
E-0---2----------0---2-----5---5---------and intro turns into verse
p.m.            p.m.

Tabalature by Master Sean Philip Snyder.
Tabalature based upon the song by Kid Dynamite "showoff".
Comments