Kid Dynamite - Pause Chords & Tabs

 

Pause Chords & Tabs

Kid Dynamite Chords & Tabs

Version: 1 Type: Bass Tab

Pause Bass Tab

~INTRO & VERSE~
G|-----------------|
D|-----------------|
A|----2-------333--|
E|-00---2-333------|
[ Tab from: http://www.guitartabs.cc/tabs/k/kid_dynamite/pause_btab.html ]
~CHORUS~
G|-------------------------------|--------|
D|-------------------------------|--------|
A|-----------3---------------3---|--------|
E|-5-XXXXX-5---3---5-XXXXX-5---3-|--10r---|

~FILL~
G|------------|
D|------------|
A|------------|
E|-10-9-7-11--|

~BRIDGE~
Bridge
G|--------------------------------|
D|--------------------------------|
A|-7777------5555-----------------|
E|------7777------55555\4\2-00000-|