Kicks - Mir Chords & Tabs

 

Mir Chords & Tabs

Kicks Chords & Tabs

Version: 1 Type: Tab 0 ratings
1 star 2 stars 3 stars 4 stars 5 stars
comments

Mir Tab

                        (STANDARD TUNING)
      Band:The Kicks
      Song:Mir
     Album:Hello Hong Kong

INTRO
(FAST TEMPO)
E---5-5-5-5--0-0-0-0-------1-2-2-2-2--------|
B--------------------2-2-2------------------|
G-------------------------------------------|       (2X)
D-------------------------------------------|
A-------------------------------------------|
E-------------------------------------------|

THEN...
E------------------------------------------------|
B------------------------------------------------|
G---9-9-9-9--------------------------------------|      (2X)
D---9-9-9-9--9-9-9-9--11-11-11-11--7-7-7-7-------|
A---7-7-7-7--9-9-9-9--11-11-11-11--7-7-7-7-------|
E------------7-7-7-7---9--9--9--9--5-5-5-5-------|

VERSE
E-----------------------------------------|
B-----------------------------------------|
G---9-9-X-X-------------------------------|      (2X)
D---9-9-X-X--9-9-X-X--X-X-11-11--7-7-7-7--|
A---7-7-X-X--9-9-X-X--X-X-11-11--7-7-5-5--|
E------------7-7-X-X--X-X--9--9--5-5-5-5--|

PRE-CHORUS
E-----------------------------------------     ---------------------|
B-----------------------------------------     ---------------------|
G---9-9-9-9------------------------------- (2X)---------------------|
D---9-9-9-9--9-9-9-9--11-11-11-11--7-7-7-7     -7-7-X-X--9-9-11-11--|
A---7-7-7-7--9-9-9-9--11-11-11-11--7-7-7-7     -7-7-X-X--9-9-11-11--|
E------------7-7-7-7---9--9--9--9--5-5-5-5     -5-5-X-X--7-7--9--9--|

VERSE(2X)
[ Tab from: http://www.guitartabs.cc/tabs/k/kicks/mir_tab.html ]
PRE-CHORUS
                           E-------------|
                           B-------------|
EXCEPT FOR THIS AT THE END G-------------|
                           D---7-7-7-7---|
                           A---7-7-7-7---|
                           E---5-5-5-5---|
CHORUS
E-------------------------------------------------|
B-------------------------------------------------|
G---------------------7-7-------------------------|
D---7-7-X-X--9-9-X-X--7-7-(LET RING HERE----------|        (4X)
A---7-7-X-X--9-9-X-X--5-5-------------------------|
E---5-5-X-X--7-7-X-X------------------------------|

THEN
E----------------------------------------------------------------------------|
B----------------------------------------------------------------------------|
G--9-9-9-9--------------------------------9-9-9-9----------------------------|
D----------9-9-9-9--11-11-11-11--7-7-7-7----------9-9-9-9--11h12p11-7-7-7-7--|
A----------------------------------------------------------------------------|
E----------------------------------------------------------------------------|

VERSE(2X)

PRE-CHORUS #2

CHORUS(4X)

BRIDGE
E-------------------------------------------|
B-------------------------------------------|
G---------------7-7-------------------------|  (4X)
D---7-7--4--11--7-7-------------------------|
A---7-7--4--11--5-5-------------------------|
E---5-5--2---9------------------------------|

ON THE LAST ONE GO
E-----------------------              ------    ------    -------|
B-----------------------              ------    ------    -------|
G---------------7-------              ------    ------    -------|
D---7-7--4--11--7--7--9- COUNT 4 BEATS-7--9-" " -7--9-" " --7--9-|
A---7-7--4--11--5--7--9-              -7--9-    -7--9-    --7--9-|
E---5-5--2---9-----5--7-              -5--7-    -5--7-    --5--7-|

THEN THIS PART COMES IN
E--5     E--7-7-7-7--8-8-8-8--9-9-9-9--10-10-10-10-   E--12p11-|
B---     B-----------------------------------------   B--------|
G---(32X)G-----------------------------------------   G--------| (4X)
D---     D-----------------------------------------   D--------|
A---     A-----------------------------------------   A--------|
E---     E-----------------------------------------   E--------|

FILL
E-----------|
B--0-0--2/3-|
G-----------| (8X)
D-----------|
A-----------|
E-----------|

OUTRO
E-----------------|
B-----------------|
G------------ (16-|X)
D--7-7--9--10-----|
A--7-7--9--10-----|
E--5-5--7---8-----|

CHORUS(8X)
                                 THE END
Comments