Kgb - Time Machine Chords & Tabs

 

Time Machine Chords & Tabs

Kgb Chords & Tabs

Version: 2 Type: Tab 0 ratings
1 star 2 stars 3 stars 4 stars 5 stars
comments

Time Machine Tab

   
TIME MACHINE by THE K.G.B.
www.thekgbrocks.com

------------------------------------------------------------------------------

POWER CHORDS
e-----------------|
B-----------------|
G-------7--5--4---|
D-7--5--7--5--4---|
A-7--5--5--3--2---|
E-5--3------------|
  A  G  D  C  B

------------------------------------------------------------------------------

RIFF 1
e-----------------------------------------------------|
B-----------------------------------------------------|
G----------5-------------------------5----------------|
D--7-7-5-7---7-5---------5-6-7-7-5-7---7-5---------5--|
A----------------7-7-5-7-------------------7-7-5-7----|
E-----------------------------------------------------|

e--------------------------------------------------------|
B--------------------------------------------------------|
G------------5-------------------------5-----------------|
D--6-7-7-5-7---7-5---------5-6-7-7-5-7---7-5----------5--|
A------------------7-7-5-7-------------------7-7-5-7--5--|
E-----------------------------------------------------3--|

    A     G             A
The story starts with a note
A           G             A
Left in the bottom of the boat
        A         G             A      G
It said kid don't mess with the time machine
    A        G       A
And that was all she wrote

        D           C              D
And the brother was built with the lot
D        C           D
Lost all hold of the plot
D         C       D
Lived his life to kill
C       D        C      D         D D D
Until the day that he got shot

A                             G
Something went wrong with the time machine
    C                B  A
And now I'm stuck in 1953
             G          C
Someone come rescue me
             B
Someone come rescue me
       A                             G
I said something went wrong with the time machine
    C                B  A
And now I'm stuck in 1953
             G          C
Someone come rescue me
             B
Someone come rescue me
       A                             G
I said something went wrong with the time machine
C                    B  RIFF 2
And now I'm stuck in 1953

RIFF 2
e------------------------------------------------------------------|
B------------------------------------------------------------------|
G------------------------------------------------------------------|
D--12--12--10--7----7--7--5--2--------12--12--10--7----7--7--5--2--|
A--12--12--10--7----7--7--5--2--------12--12--10--7----7--7--5--2--|
E--10--10---8--5----5--5--3--0--------10--10---8--5----5--5--3--0--|
[ Tab from: http://www.guitartabs.cc/tabs/k/kgb/time_machine_tab_ver_2.html ]
    A       G       A
The fuckers got the bomb
A             G    A
Reeked to the seem along
   A     G             A      G           A     G   A
We never knew that the time machine would do us any harm
        D         C      D
And the trip just took effect
D        C    D
Lost our cigarettes
D            C       D   C        D    C          D    D D D
Think you're going crazy kid and maybe you're correct

A                             G
Something went wrong with the time machine
    C                B  A
And now I'm stuck in 1953
             G          C
Someone come rescue me
             B
Sucker don't mess with me
          A                             G
It's like something went wrong with the ultrasound
    C              B         A
And now I'm living underground
              G
Those got the best of me
C                 B
Porkchop came and arrested me
         A                             G
You know something went wrong with the time machine
    C                B  RIFF 2
And now I'm stuck in 1953

RIFF 2
e------------------------------------------------------------------|
B------------------------------------------------------------------|
G------------------------------------------------------------------|
D--12--12--10--7----7--7--5--2--------12--12--10--7----7--7--5--2--|
A--12--12--10--7----7--7--5--2--------12--12--10--7----7--7--5--2--|
E--10--10---8--5----5--5--3--0--------10--10---8--5----5--5--3--0--|

RIFF 3
e----------------------------------------------------------|
B--------------------------------------------------8-9-10--|
G------------5-------------------------5-----9-9-7---------|
D----7-7-5-7---7-5---------5-6-7-7-5-7---7-5---------------|
A--7--------------7-7-5-7----------------------------------|
E----------------------------------------------------------|

A                             G
Something went wrong with the time machine
    C                B  A
And now I'm stuck in 1953
             G          C
Someone come rescue me
             B
Someone come rescue me
       A                             G
I said something went wrong with the time machine
    C                B  A
And now I'm stuck in 1953
            G
It's a penitentary
   C
No rock and roll
   B
No LSD
       A                             G
I said something went wrong with the time machine
    C                B  RIFF 2
And now I'm stuck in 1953

RIFF 2
e-------------------------------------|
B-------------------------------------|
G-------------------------------------|
D--12--12--10--7----7--7--5--2-----7--|
A--12--12--10--7----7--7--5--2-----7--|
E--10--10---8--5----5--5--3--0-----5--|

------------------------------------------------------------------------------

Tabbed by LALAPALALAPAZA
www.lalapalalapaza.com
www.thekgbrocks.net
July 10, 2002
Comments