Kgb - Fortune And Fame Chords & Tabs

 

Fortune And Fame Chords & Tabs

Kgb Chords & Tabs

Version: 1 Type: Tab 0 ratings
1 star 2 stars 3 stars 4 stars 5 stars
comments

Fortune And Fame Tab

   
FORTUNE AND FAME by THE K.G.B.
www.thekgbrocks.com

------------------------------------------------------------------------------

BAR CHORDS
e--7--7--09--09--
B--7--9--09--11--
G--8--9--10--11--
D--9--9--11--11--
A--9--7--11--09--
E--7--X--09--XX--
   B  E  C#  F#

------------------------------------------------------------------------------

RIFF 1
e-----------------------------------
B-----------------------------------
G----------------------------------- Play 5X
D------0-1-2-2---------2-3-4---0----
A--2-2---------2-3-4-4-----------1--
E----------------------------2------

She good lookin' got her mojo cookin' yeah
Wouldn't give me the time of day but                No guitar, just bass riff
If my occupation was a star in a constellation
We could get together in the Milky Way

RIFF 2
e------------------------
B------------------------
G------------------------ Play 4X
D----4-5-6-------6-9-8---
A--6-------7---7-------9-
E------------------------

And everybody wanna know somebody
Everyone wants to drop your name
You need no reservation
No special invitation
No college education if you've got fortune and fame

RIFF 3
e---------------------------------------------
B---------------------------------------------
G--------------------------------------------- * Play each power chord 8 times *
D--9--8--9--8--7--7--6---4-----4-----4-----4--
A--9--9--9--9--7--7--6---4-----4-----4-----4--
E--7--6--7--6--5--5--4---2-----2-----2-----2--
   *  *  *  *  *  *  *   One   Two   Three Four

B    E      C#           F#    B      
Everyone I know wants to be a star
       E          C#         F#
And we are and we are and we are
B    E      C#           F#    B B
Everyone I know wants to be a star
       E E         C# C#       F# F#
And we are and we are and we are and we are

RIFF 2
e------------------------
B------------------------
G------------------------ Play 4X
D----4-5-6-------6-9-8---
A--6-------7---7-------9-
E------------------------

Now I'm snappin' got my mojo crackin'
Got my whole thing happenin' at center stage and
She's there lookin' up at me
Desperately in love with me
Just can't get enough of me if I've got fortune and fame
[ Tab from: http://www.guitartabs.cc/tabs/k/kgb/fortune_and_fame_tab.html ]
RIFF 3
e---------------------------------------------
B---------------------------------------------
G--------------------------------------------- * Play each power chord 8 times *
D--9--8--9--8--7--7--6---4-----4-----4-----4--
A--9--9--9--9--7--7--6---4-----4-----4-----4--
E--7--6--7--6--5--5--4---2-----2-----2-----2--
   *  *  *  *  *  *  *   One   Two   Three Four

B    E      C#           F#    B      
Everyone I know wants to be a star
       E          C#         F#
And we are and we are and we are
B    E      C#           F#    B B
Everyone I know wants to be a star
            E E      C# C#   F# F#
Drivin in a limousine eating caviar

RIFF 1
e-----------------------------------
B-----------------------------------
G-----------------------------------
D------0-1-2-2---------2-3-4---0----
A--2-2---------2-3-4-4-----------1--
E----------------------------2------
Everyone I know wants to be a star 
And we are and we are and we are and we are

RIFF 3
e---------------------------------------------
B---------------------------------------------
G--------------------------------------------- * Play each power chord 8 times *
D--9--8--9--8--7--7--6---4-----4-----4-----4--
A--9--9--9--9--7--7--6---4-----4-----4-----4--
E--7--6--7--6--5--5--4---2-----2-----2-----2--
   *  *  *  *  *  *  *   One   Two   Three Four

RIFF 4
e------7------7-------09-------09--
B------7------9-------09-------11--
G------8------9-------10-------11--
D------9----9---------11----11-----
A----9----7--------11-----9--------
E--7-------------9-----------------

Everyone I know wants to be a star
And we are and we are and we are and we are
Everyone I know wants to be a star
Wants to be recognized walkin down the boulevard

RIFF 1
e-----------------------------------
B-----------------------------------
G-----------------------------------
D------0-1-2-2---------2-3-4---0----
A--2-2---------2-3-4-4-----------1--
E----------------------------2------

Everyone I know wants to be a star
And we are and we are and we are and we are

RIFF 1
e-----------------------------------
B-----------------------------------
G-----------------------------------
D------0-1-2-2---------2-3-4---0----
A--2-2---------2-3-4-4-----------1--
E----------------------------2------
And you are....

------------------------------------------------------------------------------

Tabbed by LALAPALALAPAZA
www.lalapalalapaza.com
www.thekgbrocks.net
September 20, 2002
Comments