Keys Francis - Star Spangled Banner Chords & Tabs

 

Star Spangled Banner Chords & Tabs

Keys Francis Chords & Tabs

Version: 1 Type: Tab 3 ratings
1 star 2 stars 3 stars 4 stars 5 stars
comments

Star Spangled Banner Tab

The Star Spangled Banner (the national anthem)
By: Francis Scott Keys
Tabbed by: Eric (rules)
You can use this for basically anything as long as you keep my name on it and don’t try to make money.
Normal tuning and you should know about how it goes so, (didn’t put in any thing showing length) there you have it. I hope you like it, it’s my first one.
Sorry about length :(

E------|----------|------0----------|-----------------|-----------------|
B------|----------|--1-------3------|--1--------------|-----------------|
G-0----|------0---|-----------------|-----------------|---0---0-0-------|
D----2-|----2-----|-----------------|-------2--4------|-----------------|
A------|--3-------|-----------------|-----------------|-----------------|
E------|----------|-----------------|-----------------|-----------------|

E---0-------------|-----------------|-----------------|-----------------|
B-------3----1----|--0--------0-----|---1----1--------|-----------------|
G-----------------|------2----------|------------0----|------------0----|
D-----------------|-----------------|-----------------|---2------------2|
A-----------------|-----------------|-----------------|--------3--------|
E-----------------|-----------------|-----------------|-----------------|

E-----------------|--------0--------|-----------------|-----------------|
B-----------------|---1--------3----|----1------------|-----------------|
G-------------0---|-----------------|-----------------|----0----0-0-----|
D--------2--------|-----------------|--------2--4-----|-----------------|
A---3-------------|-----------------|-----------------|-----------------|
E-----------------|-----------------|-----------------|-----------------|
[ Tab from: http://www.guitartabs.cc/tabs/k/keys_francis/star_spangled_banner_tab.html ]
E--0--------------|-----------------|-----------------|-----------0-0---|
B------3----1-----|---0------0------|---1----1--------|-----------------|
G-----------------|-------2---------|-------------0---|-----------------|
D-----------------|-----------------|-----------------|---2-------------|
A-----------------|-----------------|-----------------|-------3---------|
E-----------------|-----------------|-----------------|-----------------|

E---0---1----3----|----3-----1--0---|-------0-----1---|---1-----1-------|
B-----------------|-----------------|---3-------------|-----------------|
G-----------------|-----------------|-----------------|-----------------|
D-----------------|-----------------|-----------------|-----------------|
A-----------------|-----------------|-----------------|-----------------|
E-----------------|-----------------|-----------------|-----------------|

E---0-------------|-----------------|-----------------|-----------------|
B--------3--1-----|---0---------0---|---1-------------|-----------------|
G-----------------|--------2--------|-----------------|---0------0------|
D-----------------|-----------------|-------2---4-----|-----------------|
A-----------------|-----------------|-----------------|-----------------|
E-----------------|-----------------|-----------------|-----------------|

E-----------------|-----------------|----0--1--0------|-----------------|
B---1---1--1--0---|-----------------|-3----------3--1-|---1--0----------|
G-----------------|---2----2----2---|-----------------|----------0--0---|
D-----------------|-----------------|-----------------|-----------------|
A-----------------|-----------------|-----------------|-----------------|
E-----------------|-----------------|-----------------|-----------------|

E----------0---1--|---3-------------|---0----1--------|-----------------|
B--1--3-----------|-------1--3------|------------3----|---1-------------|
G-----------------|-----------------|-----------------|-----------------|
D-----------------|-----------------|-----------------|-----------------|
A-----------------|-----------------|-----------------|-----------------|
E-----------------|-----------------|-----------------|-----------------|

You can email me at diverboy699@comcast.net or IM me at serendipity97531.
Once again it kind of took up more space than I imagined.
Comments