Key Francis Scott - Star Spangled Banner Chords & Tabs

 

Star Spangled Banner Chords & Tabs

Key Francis Scott Chords & Tabs

Version: 1 Type: Tab 0 ratings
1 star 2 stars 3 stars 4 stars 5 stars
comments

Star Spangled Banner Tab

The Star-Spangled Banner in A
Francis Scott Key


1.Oh say can you see....
2.Whose broad stripes and bright stars...

|---------------------------------------------------------------------------|
|---------------------------------------------------------------------------|
|-------------------6--4--------------------6--4----------------------------|
|----------------7--------7-----------------------7--6--4--6--7--7----------|   (Play twice)
|-7--4-----4--7--------------4--6--7--7--7--------------------------7--4----|
|-------5-----------------------------------------------------------------5-|
[ Tab from: http://www.guitartabs.cc/tabs/k/key_francis_scott/star_spangled_banner_tab.html ]
  And the rockets red glare....
|---------------------------------------------------------------------------|
|-------------5--5----------------------------------------------------------|
|-6--6--6--7--------7--6--4--6--7--7-----7--6--4----------------------------|
|-------------------------------------------------7--6--4--6--7-------------|   
|----------------------------------------------------------------4--6--7----|
|---------------------------------------------------------------------------|
                                         
  Oh say does that Star Spangled...
|---------------------------------------------------------------------------------|
|------------------------------------------------------------5--------------------|
|------------------------4--7--6--4-----------------4--6--7--------4--6--7--4-----|
|-----7--7--7-6-4--4--4--------------7--6--------7--------------7--------------7--|   
|--7---------------------------------------7--7--------------------------------7--|
|------------------------------------------------------------------------------5--|


This is just the basic notes to the song, if you want
add notes where they sound cool with various bends and slides
as you find fit, and you must play this with lots of 
distortion and feedback, there really isn't any other way :)

Tabbed by Doug
doup8@yahoo.com
Comments