Key Francis Scott - Star-spangled Banner (fingerpicking) Chords & Tabs

 

Star-spangled Banner (fingerpicking) Chords & Tabs

Key Francis Scott Chords & Tabs

Version: 1 Type: Tab 0 ratings
1 star 2 stars 3 stars 4 stars 5 stars
comments

Star-spangled Banner (fingerpicking) Tab

The Star-Spangled Banner
Composer: Francis Scott Key
3/4 time
Key: G major

For the line above the tab: “|” = quarter note, “.” = eighth note

  | .      |  |  |   | | | .   |  |  |   | | | .   |  | . |   | | | . 
e-----||-----------|-3---7-5-|-3-------|---------|-7----5-3-|-2---0-2-|-----
B-3-0-||-.----0--3-|-0---7---|-0--0--2-|-3---3-3-|-3----3-3-|-3---2---|-----
G-----||---0--0--2-|-0---4---|-0--0--2-|-2-------|------2-0-|-2---2---|-----
D-----||-.---------|---------|-2-------|-0---0---|----------|-0-------|-----
A-----||-----------|-----6---|-------0-|---------|------0-2-|-----3---|-----
E-----||---3--3--2-|-0-------|----0----|---------|-3--------|---------|-----
[ Tab from: http://www.guitartabs.cc/tabs/k/key_francis_scott/star_spangled_banner_fingerpicking_tab.html ]
          |_1st time____||_2nd time___
  |  |  |   |  |  | .      |  |  | .    |  |   |    |  |  |  .    |  |  |    
e-3--3----|-------------||-------7-7-|--7--8---10-|-10----8--7-|--5--7--8--|
B-3-----3-|-0-----3-0-.-||-0-----8---|--8--10--12-|-12----10-8-|--7--8--10-|
G-0--0----|----0--------||----0--0---|--0---------|------------|-----------|
D-------0-|-----------.-||-----------|------------|----9--0----|--0--------|
A-2-------|-2-----------||-2---------|------------|------------|-----------|
E---------|----3--------||----3------|------------|------------|-----------|

  |  |  |   |  | . |   |  |  | .   |  |  |   | . | . | .   |  |  | .
e-8-----8-|-7----5-3-|-2-----0-2-|-3-------|-------------|-3--3--3-2-|------
B-10------|------3-3-|-3-----3---|-3--0--2-|-3-------3---|-0--1--0---|------
G-------7-|-7----2-0-|-2-----2---|-0--0--2-|-2-------0---|-0--0--0---|------
D-0-----0-|-5--------|-0---------|----2----|-0h2-0-------|-----------|------
A---------|------0-2-|-------3---|-2-----0-|-------3-2-0-|----0--2---|------
E---------|----------|-----------|---------|-------------|-3---------|------

  |  |  |   |  | . | .   |  |  | .   |  | . | .   |  |  | .   |  | . |   |  |  |
e-0--0--0-|-5--8-7-5-3-|-3--2------|-3----5-7-8-|-10----3-5-|-7----8-5-|-3------
B-1--1--3-|-5--5---5-5-|-3-----3-3-|-3--------8-|-8-----5-2-|-8----5-7-|--------
G-0--0--1-|-5--5-7---3-|-2---------|-0------7---|-0---------|-7----7-7-|-0------
D---------|------------|-0-----0---|------0-5-7-|-------2---|-0----0-0-|--------
A-3--3--2-|-0--0---3-4-|---------3-|-2----------|-----------|----------|--------
E---------|------7-----|-----------|------------|-----------|----------|-3------


david wagner
barndoor43@yahoo.com
Comments