Kevin Coyne - Your Holliness Chords & Tabs

 

Your Holliness Chords & Tabs

Kevin Coyne Chords & Tabs

Version: 1 Type: Tab 0 ratings
1 star 2 stars 3 stars 4 stars 5 stars
comments

Your Holliness Tab

   
Your Holliness (Kevin Coyne)

Tabbed by seboddos aka zappy the koala

Riff Intro:
          A x7		       A x7           D
E |--5--------------------5------------5----------5---5--5--------------|
B |--5--------------------5-----7--7---5---7--7---5---5--5--------------|
G |--6--------------------6-----7--7---6---7--7---6---6--6--------------|
D |--7--------------------7-----7--7---7---7--7---7---7--7--------------|
A |--7--------------------7-----5--5---7---5--5---7---7--7--------------|
E |--5------0--3--0--3----5------------5----------5---5--5--------------|

Verse 1 

Riff 1 (Verse)
  D      A   D   A           D   A    D  A          G
E |--2-2-----2-2----------|--2-2-----2-2------------------|
B |--3-3--2--3-3--2-------|--3-3--2--3-3--2---------------|
G |--2-2--2--2-2--2-------|--2-2--2--2-2--2---------------|
D |--0-0--2--0-0--2-------|--0-0--2--0-0--2---------------|
A |-------0-------0--0--0-|-------0-------0---------------|
E |------------------------------------------0--3--0--3---|

Riff1
Your Holiness,  Say a prayer for me        My brother and myself we beseech 
Bm  Fm#      Bm     Fm#  Bm  Fm#  Bm Fm#
You help us in our quest for eternal happiness
Riff1
And money, money, money, money, money, and money, money, money, money, money, money
[ Tab from: http://www.guitartabs.cc/tabs/k/kevin_coyne/your_holliness_tab.html ]
Verse 2 
Riff1
Your Holiness, now come down here  	Give us the benefit of your advice 
Bm    Fm#    Bm         Fm#       Bm       Fm#       Bm     Fm#       Riff2
Keep on praying, keep on praying, keep on saying, "God will save us all, He'll save us all"

Riff2
E |----------------------------------------------------------------|
B |----------------------------------------------------------------|
G |----------------------------------------------------------------|
D |-----------------------0-----------0----------------------------|
A |-0------------------------3--0--3-----3--0----------------------|
E |---3--2--1--0--1--0-------------------------3--2--1--0----------|

Verse 3 
Riff1
Your Holiness, with your baubles and beads    Your jewellery for all the world's needs 
Bm         Fm#       Bm      Fm#    Bm         Fm#     Bm         Fm#       
Send an aeroplane of snowy white through the clouds with Gods light
Riff1
And money, money, money. money and money, money, money. money, money

Verse 4 
Riff1
Your Holiness, you're not listening to me 	Your Holiness, you're not listening to me
Bm   Fm# Bm   Fm#    Bm           Fm#          Bm         Fm#    Riff1   
I'm dying day by day, millions of others are going the same way

Verse 5 
Riff1
Your Holiness, you're not listening to me 	Your Holiness, you're not listening to me
Bm   Fm# Bm   Fm#    Bm           Fm#          Riff2   
I'm dying day by day, I'm so confused  You can't help anyway
Comments