Kerispatih - Kejujuran Hati Chords & Tabs

 

Kejujuran Hati Chords & Tabs

Kerispatih Chords & Tabs

Version: 2 Type: Tab

Kejujuran Hati Tab

Band  : Kerispatih
Lagu  : Kejujuran hati
Tab by: Fadli irfandi
E-mail: Fadli_irfandi_on7@yahoo.com

Tabulasi ini gw bikin dalam waktu 1jam. jadi klo ada nada yang salah dikit wajar saja.
intronya gue yakin benar. interludenya mungkin 90% benar. gue kesulitan di bagian akhir
interludenya. kalau ada sobat yang tau&bisa membetulkan. mohon kirim ke email gue. kalau
ada yg mau request tabulasi, kirim aja ke email gue.


Intro:
|-------------10~-----8-7-------------------10-------------------------|
|--------8h10-------------8~----8-10-12-12^---12r----10\8--10~---------|
|----7h9---------------------------------------------------------------|
|----------------------------------------------------------------------|
|----------------------------------------------------------------------|
|----------------------------------------------------------------------|

|--------------7h8--10-----8-7--10----8-7-----------------------------|
|---------8h10-----------------------------10~-----8-10.---8h10-7~\1--|
|-----7h9-------------------------------------------------------------|
|---------------------------------------------------------------------|
|---------------------------------------------------------------------|
|---------------------------------------------------------------------|
[ Tab from: http://www.guitartabs.cc/tabs/k/kerispatih/kejujuran_hati_tab_ver_2.html ]
Interlude:
|--------------------13^13r-------------------------------------------|
|----5/10~-\1---5/10-----10~~-----------------12h1414^r----12h14^-----|
|---------------------------------9/11-14-14------------14------------|
|---------------------------------------------------------------------|
|---------------------------------------------------------------------|
|---------------------------------------------------------------------|

|----------------16^16^-------------------------------|
|---12h14-14--17----------17-19^~---------------------|
|--------------------------------17^r--14h1614~-------|
|-----------------------------------------------------|
|-----------------------------------------------------|
|-----------------------------------------------------|

-orchesta-

|-----/15~-/14~---12h14-10h12-8h10-7h8-5h7-3h5-3^r-------------|
|---------------------------------------------------5-3h5~-----|
|--------------------------------------------------------------|
|--------------------------------------------------------------|
|--------------------------------------------------------------|
|--------------------------------------------------------------|


|---------------------/15---------------|
|---------------12h14-------------------|
|---------12h14-------------------------|
|----12h14------------------------------|
|--14-----------------------------------|
|---------------------------------------|