Kent Joshua - The Road Chords & Tabs

 

The Road Chords & Tabs

Kent Joshua Chords & Tabs

Version: 1 Type: Tab 0 ratings
1 star 2 stars 3 stars 4 stars 5 stars
comments

The Road Tab

                                       The Road
| = not a standard bar line; just used to separate music
~ = vibrato or held note
x = percussive note with no pitch; muted note
h = hammer on
p = pull off
s = slide
b = bend string up to indicated pitch/fret
r = release bend to indicated string/fret
/ = slide up from infinity
\ = slide down into infinity
o
o = repeat line
 
 *Acoustic
 [intro] {x4}
e:---------0---------------0---------------------------------------]
B:-------3---3-----------3---3-------------3-----------------------]
G:-----2-------2-------0-------0---------0---0---------------------]
D:---3-----------0---2-----------0-----0-------0-------0-----0-----]
A:-0---------------3-----------------2-----------2---0-----0-----0-]
E:---------------------------------3---------------2-----3-----2---]

 [Riff 1] {x2}
e:------0--------------------------------------------------]
B:--3-----3---------3--------------------------------------]
G:o-2---------0-0-----0---0-------0-----0-----------------o]
D:o-3-------3---2-2-------------0---0---------0-----0-----o]
A:--0-0---------3-------3---2-2-------2-----0-----0-----0--]
E:--------------------------3-------------2-----3-----2----]

  [Riff 2] {x4}
e:-0--0--0-0-0-0--0--0-0-0-0--0--0--0--0--0-0-0-0--0--0-0-0-0--0--0-|
B:-3--3--3-3-3-3--3--3-3-3-3--3--3--3--3--3-3-3-3--3--3-3-3-3--3--3-|
G:-2--2--2-2-2-2--2--2-2-2-2--2--2--2--2--2-2-2-2--2--2-2-2-2--2--2-|
D:-3-----3-3-3-3-----3-3-3-3--------3-----3-3-3-3-----3-3-3-3-------|
A:-0-----0-0-0-0--------------------0-----0-0-0-0-----0-0-0-0-------|
E:------------------------------------------------------------------|
   "And        now         the          sorrow's             gone"
e:-0--0-0-0-0--0--0-0-0-0---------]
B:-3--3-3-3-3--3--3-3-3-3---------]
G:-0--0-0-0-0--0--0-0-0-0--0--0-0-]
D:-2--2-2-2-2--0--0-0-0-0--0--0-0-]
A:-3--3-3-3-3--2--2-2-2-2--0--0-0-]
E:-0--0-0-0-0--3--3-3-3-3--3--3-3-]
[ Tab from: http://www.guitartabs.cc/tabs/k/kent_joshua/the_road_tab.html ]
e:------0------------------------------------------------------]
B:--3-----3----------------------------------------------------]
G:o-2---------0-----0-----0-------0---0-----0-----------------o]
D:o-3-------3-----2-----2-----0-----0---0---------0-----0-----o]
A:--0-0---------3-----3-----2-----2-------2-----0-----0-----0--]
E:------------------------------3-------------2-----3-----2----]

 -(Riff 2) {x4}
 
e:------------------0--------------------------------------]
B:--3---3-------------3------------------------------------]
G:o-2-----2---0-----------0-------0-----0-----------------o]
D:o-3-------3-----2-------------0---0---------0-----0-----o]
A:--0-0---------3-------3-----2-------2-----0-----0-----0--]
E:--------------------------3-------------2-----3-----2----]

Interlude- 
  -{x4}  
e:--------------------------------------------------]
B:--------0-----------0-----------0-----------------]
G:------0---0-------0---0-------0---0---------------]
D:----4-------4---2-------2---0-------0-----0-----0-]
A:-2------------3-----------2-------------2-----0---]
E:-0~-----------------------------------3-----2-----]
                              
e:------------------------------------------------------]
B:------------------------------------------------------] 
G:o------0------------0------------0-------------------o]
D:o--------4---4----2---2---2----0---0---0-----0-----0-o]
A:--2--2-----2---3--------3---2--------2-----2-----0----]
E:--0~-------------------------------------3-----2------]

  -{x6}
e:----------------------------------------------------------------|--------------------]
B:----------------------1--1-1-1-1--1-1-1-1-----------------------|--------------------] 
G:-4--4-4-4-4--4-4-4-4--0--0-0-0-0--0-0-0-0---0--0-0-0-0--0-0-0-0-|--------------------]
D:-4--4-4-4-4--4-4-4-4--2--2-2-2-2--2-2-2-2---2--2-2-2-2--2-2-2-2-|-0-0-0--0--0-0-0--0-]
A:-2--2-2-2-2--2-2-2-2--3--3-3-3-3--3-3-3-3---2--2-2-2-2--2-2-2-2-|-2-2-2--2--0-0-0--0-]
E:-0--0-0-0-0--0-0-0-0--0--0-0-0-0--0-0-0-0---0--0-0-0-0--0-0-0-0-|-3-3-3--3--2-2-2--2-]
  'Through           these            troubled           times'

 -(Riff 1) {x2}

 -(Riff 2) {x4}

 -(intro) {x4} -gradually get slower at end of riff

e:---------------0~-]
B:-----------0------]
G:--------0---------]
D:-----2------------]
A:---2--------------]
E:-0----------------]
Comments