Kent - Om Du Var Har Chords & Tabs

 

Om Du Var Har Chords & Tabs

Kent Chords & Tabs

Version: 1 Type: Tab 0 ratings
1 star 2 stars 3 stars 4 stars 5 stars
comments

Om Du Var Har Tab

   
Tyoceth "om du var har"- Kent
c tune

intro

------------------------4-----2----------------------|--|
-----------3-----2------------------3-----2-----2----|--|
-----2--------2-----2------2-----2-----2-----2-------|--|
--4-----4--------------------------------------------|--|
-----------------------------------------------------|--|
-----------------------------------------------------|--|

[ Tab from: http://www.guitartabs.cc/tabs/k/kent/om_du_var_har_tab.html ]
-----------------4-\-2-----------------------------------|
-------2~--------------2-----------3~----3--2------------|
----2---------------------------4--------------1~--------|
-4---------------------------4---------------------(4~)--|
---------------------------------------------------------|
---------------------------------------------------------|
tiii				al ge wuis blu
sprooo				me tii .. fida?? ((beautiful language hehe))
refren: I gituar
-------------------------------------------------------------|
-------------------------------------------------------------|
-----------------------------------------7--------9-------6--|
-4---------------------------------------7--------9-------6--|
-4---------------------------------------5--------7-------4--|
-2-----------------------------------------------------------|
Om du var har? Om du var har?om ...
Guitar II
------------------------------------------------------------------------------------------------|
------------------------------------------------------------------------------------------------|
------------------------------------------------------------------------------------------------|
--4h6-6-6-4h6-666-4h6-4-666777999-777---6h7776h7--9h11-11-764~----------------------------------|
------------------------------------------------------------------------------------------------|
------------------------------------------------------------------------------------------------|

solo first
------------------------------------------------------------------------------|
----8^^-8-7-10^^ 10-7---------------------8^^--8-7-9^^^--10-8-----------------|
----------------------9~---7-6--7-6-4~------------------------9~---7-6--6\4~--|
------------------------------------------------------------------------------|
------------------------------------------------------------------------------|
------------------------------------------------------------------------------|
in beetween
under the verses->
------------------------------------------------------------------|
------------------------2---2-2--------5-5-------------5-5--------|
-----4~----4~4~---------4---4-4--------6-6-------------6-6--------|
-4-4-4---4-4-4---X3-4-4---4-------4-4-------4-6-6--4 4-----4-6-6--|
----------------------------------------------7-7------------7-7--|
------------------------------------------------------------------|

the second solo its just like:
--------------------------------------------------------------------------|
--13----16----------------------------------------------------------------|
--15^^--18^^--and stuff no time to think about it, its just wziiuuumm :D--|
--------------------------------------------------------------------------|
--------------------------------------------------------------------------|
--------------------------------------------------------------------------|
Comments