Kent - Music Non Stop Chords & Tabs

 

Music Non Stop Chords & Tabs

Kent Chords & Tabs

Version: 1 Type: Bass Tab 0 ratings
1 star 2 stars 3 stars 4 stars 5 stars
comments

Music Non Stop Bass Tab

   
Song: Musik Non Stop	
Artist: Kent
Album: Hagnesta Hill
Tabbed by: barbar/antialien(barbaros@lycos.com)
Tuning: E A D G
[ Tab from: http://www.guitartabs.cc/tabs/k/kent/music_non_stop_btab.html ]
G-----------------------------
D-----------------------------
A----5-0-----3-5-----7--5-3---
E-----------------------------


G-----------------------------
D----5-0-----3-5-----7--5-3---
A-----------------------------
E-----------------------------


G-----------------------------
D-----------------------------
A--5---1---3------------------
E---------------3-5-----------

Comments