Kent - K Rleken V Ntar Chords & Tabs

 

K Rleken V Ntar Chords & Tabs

Kent Chords & Tabs

Version: 1 Type: Chords 0 ratings
1 star 2 stars 3 stars 4 stars 5 stars
comments

K Rleken V Ntar Chords

   
Ackord / Kärleken väntar 
Text: J. Berg 
Musik: J. Berg 
Skiva: Vapen & Ammunition 
Uppdaterad: 020820 
Visa texten | Visa ackorden 




   Am
e-------------------------
B----1---1---1---1---0h1--
G----2---2---2---2---0h2--
D-------------------------
A--0---0---0---0---2------
E------------------------- x8


 Am
 Brinn pengar brinn

 Jag lovar att du betyder någonting
                 F
 Du orkar ta dig igenom det här
                   Am          
 Du räcker till så var den du är
 Am
 Brinn pengar brinn

 Jag vet att du är värd någonting 
                    F
 Du är hoppet i ett IQ-fritt land
                     Am     
 Du är drömmarna jag drömmer ibland

                         C  Em   Am
 Visst känns det som om kärleken väntar
                         C  Em   Am
 Visst känns det som om kärleken väntar

 Am
 Brinn hjärtat brinn
 
 Du vet du kan förändra allting
                    F
 Det blåser genom staden inatt
                      Am
 Hör du sanningen den lät som ett skratt
  Am
 Brinn hjärtat brinn

 Vår fiende är rädd om sitt skinn
                     F
 Det räcker med en gnista ett bloss
                  Am
 Dom skulle vilja vara som oss
[ Tab from: http://www.guitartabs.cc/tabs/k/kent/k_rleken_v_ntar_crd.html ]
                         C  Em   Am
 Visst känns det som om kärleken väntar
                         C  Em   Am
 Visst känns det som om kärleken väntar

 Solo: (se tab nedan)

 |Dm  |Dm  |Am  |G   |
 |Dm  |Dm  |Am  |G   |
 |F   |Em  |

 |Am  |Am  |Am  |Am  |
 |Am  |Am  |Am  |Am  |

                         C  Em   Am
 Visst känns det som om kärleken väntar
                         C  Em   Am
 Visst känns det som om kärleken väntar
                         C  Em   Am
 Visst känns det som om kärleken väntar
                         F  Em   Am*
 Visst känns det som om kärleken väntar

*|Am  |Am  |Am  |Am  |


Solo:
   Dm          Dm               Am    G 
e-------------------------------------7b8r7-------------
B----------------------8/10-8---------------5-8b10r8----
G--7--5-7b9-7-5---7--5--------5-7/9------------------5--
D------------------------------------------------------ 
   Dm          Dm              Am       G
e-------------------------------------5---7---
B----------------------------------/8---------
G--7--5-7b9-7-5---7--5-7b9-7-5----------------
D------------------------------7--------------
   F              Em           Am
e--7b8r7----7b8r7------------------
B--------5-------------------------
G-----------------7----7b8r7p5-----
D------------------------------7---


 
Comments