Kent - Ingenting Nagonsin Chords & Tabs

 

Ingenting Nagonsin Chords & Tabs

Kent Chords & Tabs

Version: 1 Type: Tab 0 ratings
1 star 2 stars 3 stars 4 stars 5 stars
comments

Ingenting Nagonsin Tab

Tabbed by: Carl-Johan Holtback, member of the Shrimps
marabou_man14@hotmail.com




Under versen, gitarr 1:

e|----------------------------------------------------------------------------|
H|----------------------------------------------------------------------------|
G|--4----6----8----9----16----11----10-9-10-9-10-9-10-9-10-9-10-9-10-9-10-9---|
D|----------------------------------------------------------------------------|
A|----------------------------------------------------------------------------|
E|----------------------------------------------------------------------------|




Mellanspel, gitarr 1:

e|----------------------------------------------------------------------------------|
H|----------------------------------------------------------------------------------|
G|--10-9-10-9-10-9-10-9-10-9-10-9-10-9-10-9-10-9-10-9-10-9-10-9-10-9-10-9-10-9-10/--|
D|----------------------------------------------------------------------------------|
A|----------------------------------------------------------------------------------|
E|----------------------------------------------------------------------------------|


e|----------------------------------------|
H|----------------------------------------|
G|--16-------11---8--9-8--9-8--9-8--8\ ---|
D|----------------------------------------|
A|----------------------------------------|
E|----------------------------------------|




Mellanspel, gitarr 2:

e|--------6------------------------------6----------------------|
H|--9-------7----------------------9-------7--------------------|
G|--------------8---7-------8------------------8---7-------8----|
D|------------------------9------------------------------9------|
A|--------------------------------------------------------------|
E|--------------------------------------------------------------|



Outro gitarr1

e|-----------------------------------------------------------------------------------|
H|-----------------------------------------------------------------------------------|
G|--10-9-10-9-10-9-10-9-10-9-10-9-10-9-10-9-10-9-10-9-10-9-10-9-10-9-10-9-10-9-10-9--|
D|-----------------------------------------------------------------------------------|
A|-----------------------------------------------------------------------------------|
E|-----------------------------------------------------------------------------------|

[ Tab from: http://www.guitartabs.cc/tabs/k/kent/ingenting_nagonsin_tab.html ]
e|----------------------------------------------------------------------------------|
H|----------------------------------------------------------------------------------|
G|--4----6----8----9----16--På 4 takter glider man med denna ton upp till band 20---|
D|----------------------------------------------------------------------------------|
A|----------------------------------------------------------------------------------|
E|----------------------------------------------------------------------------------|



e|--Tyst-i två takter,-------------------------|---Detta spelas rytmiskt fritt--------|
H|--På fjärde slaget i-------------------------|---under 4 takter---------------------|
G|--takt 2 kommer man in:---10---------16------|---10----16----10----16----10----16---|
D|---------------------------------------------|--------------------------------------|
A|---------------------------------------------|--------------------------------------|
E|---------------------------------------------| 8x ----------------------------------|




Outro gitarr 2:

e|--------6-----------------------------------------------------|
H|--9-------7---------------------------------------------------|
G|--------------8---7-------8-------------6-----8-----10--------|
D|------------------------9--------9----------------------------|
A|--------------------------------------------------------------|Efter detta var tyst i 4
E|--------------------------------------------------------------|takter sen fortsätter man:


e|-------------------------------------|
H|--7----7--6----6--5-----5--4----4----|
G|-----4-------4--------4-------4------|
D|-------------------------------------|
A|-------------------------------------|
E|-------------------------------------| 6x



Outro gitarr 3:

e|-----------------------------------------------------------------|
H|---7-7-7-7-7-7-7-7-6-6-6-6-6-6-6-6-5-5-5-5-5-5-5-5--b4--0-b4--0--|
G|---4-4-4-4-4-4-4-4-4-4-4-4-4-4-4-4-4-4-4-4-4-4-4-4---------------|
D|-----------------------------------------------------------------|
A|-----------------------------------------------------------------|
E|-----------------------------------------------------------------| 10x



b = bänd uppåt ett band
\ = glid ner

Istället för plektrum så använder Gitarr 1 en E-bow. Det är en elektrisk 
mackapär som sätter strängen i rörelse och tonerna kan då klinga ut hur 
länge som helst.
Comments