Kent - En Himmelsk Drog Chords & Tabs

 

En Himmelsk Drog Chords & Tabs

Kent Chords & Tabs

Version: 1 Type: Tab 0 ratings
1 star 2 stars 3 stars 4 stars 5 stars
comments

En Himmelsk Drog Tab

   
intro: |Am     |Am   G  | 4x

E|-5--5--5--5--8b-5--8b-5--|-0--0--0--0--3--3--3--3--|

b=bend (se kommentar nedan)*


Dm                          Am         G
  Jag såg en bild från mitt 80-tal
Dm               F          C               E
  mitt hårdrocksjag och jag undrar vem det var
Dm                      Am            G
  jag såg en film, en framtidsvision
Dm          F             C             E
  en kommentar, var att slutet blir så sorgligt
          Am
  i regissörens version

|Am    |

       F
  Och då kommer känslan
        G
  den smygande känslan
      C                 E
  den enda jag inte rår på
       F
  Då stänger jag själen
    G
  klämmer ihjäl den
    Am                 E/G#
  & hittar en himmelsk drog
       F
  Och då kommer känslan
  G                   Am
  är jag den enda som aldrig förstår...

|Am    |Am    |


Dm                          Am        G
  Jag såg en bild från mitt 90-tal
Dm       F           C              E
  23-årsdag, och jag undrar vem jag var
Dm                     Am              G
  Jag såg en film, en man med pistol
Dm          F             C            E
  en kommentar, var att slutet blir så vackert
       Am
  i en oklippt version

|Am    |

       F
  Och då kommer känslan
        G
  den smygande känslan
      C                 E
  den enda jag inte rår på
       F
  Då stänger jag själen
    G
  klämmer ihjäl den
    Am                 E/G#
  & hittar en himmelsk drog
       F
  Och då kommer känslan
  G                   Am
  är jag den enda som aldrig förstår...

|F    |G     |C     |E    |
|F    |G     |Am    |E/G# |
[ Tab from: http://www.guitartabs.cc/tabs/k/kent/en_himmelsk_drog_tab.html ]
       F
  Och då kommer känslan
        G
  den smygande känslan
      C                 E
  den enda jag inte rår på
       F
  Då stänger jag själen
    G
  klämmer ihjäl den
    Am                 E/G#
  & hittar en himmelsk drog
       F
  Och då kommer känslan
        G
  den smygande känslan
      C                 E
  den enda jag inte rår på
       F
  Då stänger jag själen
    G
  klämmer ihjäl den
    Am                 E/G#
  & hittar en himmelsk drog
       F
  Och då kommer känslan
  G                   Am
  är jag den enda som aldrig förstår...


|Am    |Am  G | (dessa två takter repeteras och fejdas ner)


Solo:

B|--13/17----15\13--12--13/15--15/17--15\13--12--|

B|13/15--15/17--15\13--12--10\8--8/10-------6-5--|


Synth under versen (här som gitarrtab):

   Dm          Am  G         Dm    F       C   E
e|---|-------|---|-7-------|-----|-8-----|---|-19------|
B|---|-------|---|----5----|-----|---6---|---|----17---|
G|---|-------|---|-------5-|-7---|-------|---|---------|

   Dm          Am  G         Dm    F       C   E
e|---|-8-----|---|-7-------|-----|-8-----|---|-19------|
B|---|---6---|---|----5----|-----|---6---|---|----17---|
G|---|-------|---|-------5-|-7---|-------|---|---------|


Innan refrängen:
E|-5--5--5--5--8b-5--8b-5--|-0--0--0--0--3--3--3--3--|

Gitarr 1 i refrängen:
e|------------------|-----------------|-----------------|-----------------|
B|------------------|-----------------|-----------------|-----------------|
G|------------------|-----------------|-----------------|-----------------|
D|-7-7-7-7-10-7-7-7-|-5-5-5-5---------|-5-5-5-5-5-5-5-5-|-6-6-6-6-7-7-9-9-|
A|------------------|---------5-5-5-5-|-7-7-7-7-7-7-7-7-|-----------------|
E|------------------|-----------------|-----------------|-----------------|


e|------------------|-----------------|-------------------|-----------------|
B|------------------|-----------------|-------------------|-----------------|
G|------------------|-----------------|-------------------|-----------------|
D|-7-7-7-7-10-7-7-7-|-5-5-5-5---------|-------------------|-----------------|
A|------------------|---------5-5-5-5-|-------------------|-----------------|
E|------------------|-----------------|-5-5-5-5-8b-5-8b-5-|-0-0-0-0-3-3-3-3-|


e|-------------------|-----------------|
B|-------------------|-----------------|
G|-------------------|-----------------|
D|-/7-7-7-7-10-7-7-7-|-----------------|
A|-------------------|-2-2-2-2---------|
E|-------------------|---------3-3-3-3-|

Kommentar: *bend upp endast jättelite, ca en kvarts ton dvs. ett halvt band.
           Solot spelas med en slidehylsa.
Comments