Kenny Wayne Shepherd - Wild Love Chords & Tabs

 

Wild Love Chords & Tabs

Kenny Wayne Shepherd Chords & Tabs

Version: 1 Type: Tab 0 ratings
1 star 2 stars 3 stars 4 stars 5 stars
comments

Wild Love Tab

				WILD LOVE
		         Kenny Wayne Shepherd Band
			  

Intro
e--------------------------|      |----------------------------|
b--------------------------|      |----------------------------|
g--9--9-7--7-6--6-5-5-4-4-*|  3x  |-9--9-9--9------------------|
d--x--x-x--x-x--x-x-x-x-x-*| then |-x--x-x--x--7--5--2--2-0h2--|
a--7--7-5--5-4--4-3-3-2-2--|      |-7--7-5--5--7--5--2--2-0h2--|
e--0--0-0--0-0--0-0-0-0-0--|      |-0--0-0--0--5--3--0--0-0h0--|

1st Verse (Rythm)
-----3---------------------|-----3------------------|-----3-----/6\5-3p0-|
-----3---------------------|-----3------------------|-----3-----/6\5-3p0-|
-----------------0h2p0-----|------------------------|--------------------|
-------0h2---0h2-------2p0-|-------0h2--0h2p0h2p0h2-|-------0h2----------|
---------------------------|------------------------|--------------------|
-0-0-----------------------|-0-0--------------------|-0-0----------------|

------3-----------|-----3---------------------|-----3------------------|
------3-----------|-----3---------------------|-----3------------------|
------------------|-----------------0h2p0-----|------------------------|
--------0h2-------|-------0h2---0h2-------2p0-|-------0h2--0h2p0h2p0h2-|
------------0-1-2-|---------------------------|------------------------|
--0-0-------------|-0-0-----------------------|-0-0--------------------|

------3-----/6\5-3p0-|-----3--------------------|
------3-----/6\5-3p0-|-----3--------------------|
---------------------|----------------0h2p0-----|
--------0h2----------|-------0h2--0h2-------2---|
---------------------|--------------------------|
--0-0----------------|-0-0----------------------|

Chorus
--------------------------|     |----------------------------|---------------|
--------------------------|     |----------------------------|---------------|
--9--9-7--7-6--6-5-5-4-4-*|  3x |-9--9-9--9------------------|---------------|
--x--x-x--x-x--x-x-x-x-x-*| then|-x--x-x--x--7--5--2--2-0h2--|--7---5---2----|
--7--7-5--5-4--4-3-3-2-2--|     |-7--7-5--5--7--5--2--2-0h2--|--7---5---2----| 
--0--0-0--0-0--0-0-0-0-0--|     |-0--0-0--0--5--3--0--0-0h0--|--5---3---0----|

2nd Verse (Rythm)
-----3---------------------|-----3------------------|-----3-----/6\5-3p0-|
-----3---------------------|-----3------------------|-----3-----/6\5-3p0-|
-----------------0h2p0-----|------------------------|--------------------|
-------0h2---0h2-------2p0-|-------0h2--0h2p0h2p0h2-|-------0h2----------|
---------------------------|------------------------|--------------------|
-0-0-----------------------|-0-0--------------------|-0-0----------------|

------3-----------|-----3---------------------|-----3------------------|
------3-----------|-----3---------------------|-----3------------------|
------------------|-----------------0h2p0-----|------------------------|
--------0h2-------|-------0h2---0h2-------2p0-|-------0h2--0h2p0h2p0h2-|
------------0-1-2-|---------------------------|------------------------|
--0-0-------------|-0-0-----------------------|-0-0--------------------|

------3-----/6\5-3p0-|-----3--------------------|
------3-----/6\5-3p0-|-----3--------------------|
---------------------|----------------0h2p0-----|
--------0h2----------|-------0h2--0h2-------2---|
---------------------|--------------------------|
--0-0----------------|-0-0----------------------|
[ Tab from: http://www.guitartabs.cc/tabs/k/kenny_wayne_shepherd/wild_love_tab.html ]
Chorus
--------------------------|     |----------------------------|----------------|
--------------------------|     |----------------------------|----------------|
--9--9-7--7-6--6-5-5-4-4-*|  3x |-9--9-9--9------------------|----------------|
--x--x-x--x-x--x-x-x-x-x-*| then|-x--x-x--x--7--5--2--2-0h2--|--7---5---2-----|
--7--7-5--5-4--4-3-3-2-2--|     |-7--7-5--5--7--5--2--2-0h2--|--7---5---2-----|
--0--0-0--0-0--0-0-0-0-0--|     |-0--0-0--0--5--3--0--0-0h0--|--5---3---0-----|

		Pre Solo
----------------|-------|-------|-------|----------|
----------------|-------|-------|-------|----------|
----------------|-------|-------|-------|----------|
--7---5---2-----|---5---|---7---|---5---|---7---9--|
--7---5---2-----|---5---|---7---|---5---|---7---9--|
--5---3---0-----|---3---|---5---|---3---|---5---7--|

Solo (Rythm)
-----3---------------------|-----3------------------|-----3-----/6\5-3p0-|
-----3---------------------|-----3------------------|-----3-----/6\5-3p0-|
-----------------0h2p0-----|------------------------|--------------------|
-------0h2---0h2-------2p0-|-------0h2--0h2p0h2p0h2-|-------0h2----------|
---------------------------|------------------------|--------------------|
-0-0-----------------------|-0-0--------------------|-0-0----------------|

------3-----------|-----3---------------------|-----3------------------|
------3-----------|-----3---------------------|-----3------------------|
------------------|-----------------0h2p0-----|------------------------|
--------0h2-------|-------0h2---0h2-------2p0-|-------0h2--0h2p0h2p0h2-|
------------0-1-2-|---------------------------|------------------------|
--0-0-------------|-0-0-----------------------|-0-0--------------------|
						(End of Solo)
------3-----/6\5-3p0-|-----3--------------------|------------------------|
------3-----/6\5-3p0-|-----3--------------------|------------------------|
---------------------|----------------0h2p0-----|------------------------|
--------0h2----------|-------0h2--0h2-------2---|-0h2p0h2p0h2p0h2p0h2p0--|
---------------------|--------------------------|------------------------|
--0-0----------------|-0-0----------------------|------------------------|
(slowly fade out)
------------------------|------------------------|------------------------|
------------------------|------------------------|------------------------|
------------------------|------------------------|------------------------|
-0h2p0h2p0h2p0h2p0h2p0--|-0h2p0h2p0h2p0h2p0h2p0--|-0h2p0h2p0h2p0h2p0h2p0--|
------------------------|------------------------|------------------------|
------------------------|------------------------|------------------------|

Bridge
---------------|--------------|--------------|--------------|
---------------|--------------|--------------|--------------|
--9---9-7---7/-|-9---9-7---7/-|-9---9-7---7/-|-9---9-7---7/-|
--x---x-x---x/-|-x---x-x---x/-|-x---x-x---x/-|-x---x-x---x/-|
--7---7-5---5/-|-7---7-5---5/-|-7---7-5---5/-|-7---7-5---5/-|
--0---0-0---0/-|-0---0-0---0/-|-0---0-0---0/-|-0---0-0---0/-|

Chorus
-------------------------|     |----------------------------|----------------|
-------------------------|     |----------------------------|----------------|
-9--9-7--7-6--6-5-5-4-4-*|  3x |-9--9-9--9------------------|----------------|
-x--x-x--x-x--x-x-x-x-x-*| then|-x--x-x--x--7--5--2--2-0h2--|--7---5---2-----|
-7--7-5--5-4--4-3-3-2-2--|     |-7--7-5--5--7--5--2--2-0h2--|--7---5---2-----|
-0--0-0--0-0--0-0-0-0-0--|     |-0--0-0--0--5--3--0--0-0h0--|--5---3---0-----|

----------------|----------------|--------------------|
----------------|----------------|--------------------|
----------------|----------------|--------------------|
--7---5---2-----|--7---5---2-----|--7----5-----2------|
--7---5---2-----|--7---5---2-----|--7----5-----2------|
--5---3---0-----|--5---3---0-----|--5----3-----0------|

KENNY WAYNE SHEPHERD IS THE GREATEST!
Comments