Kenny Wayne Shepherd - True Lies Chords & Tabs

 

True Lies Chords & Tabs

Kenny Wayne Shepherd Chords & Tabs

Version: 1 Type: Tab 0 ratings
1 star 2 stars 3 stars 4 stars 5 stars
comments

True Lies Tab

e------------------------------------------------------
B-------------------------------------------------------
G-------------------------------------------------------  Repeats
D-----1/2----1/2--0-------------------------------------
A--------------------2-----1p0--------0h1p0-------------
E--0-----------------------------3-------------3----0---


e-------------------------------------------------------
B-------------------------------------------------------
G-----1/2---1/2---0-------------------------------------  Repeats
D----------------------2---1p0---------0h1p0------------
A--0------------------------------3-------------3----0--
E-------------------------------------------------------
[ Tab from: http://www.guitartabs.cc/tabs/k/kenny_wayne_shepherd/true_lies_tab.html ]
Comments