Kenny Wayne Shepherd - Them Changes Chords & Tabs

 

Them Changes Chords & Tabs

Kenny Wayne Shepherd Chords & Tabs

Version: 1 Type: Tab 0 ratings
1 star 2 stars 3 stars 4 stars 5 stars
comments

Them Changes Tab

                        KENNY WAYNE SHEPHERD
                           THEM CHANGES


STANDARD TUNING

EADGBe

[ Tab from: http://www.guitartabs.cc/tabs/k/kenny_wayne_shepherd/them_changes_tab.html ]
--12b------------------------|
--12b------------------------|
-----------------------------|
------------5----------------|
--------7-7---7-5-3-0-0------|
-----------------------------|


-----------------12b---------|
-----------------12b---------|
-----------------------------|
-----------------------------|
-----5-----------------------|
-7-7---7-5-3-0---------------|


very simple song
peace
Comments