Kenny Wayne Shepherd - Slow Ride Chords & Tabs

 

Slow Ride Chords & Tabs

Kenny Wayne Shepherd Chords & Tabs

Version: 3 Type: Tab

Slow Ride Tab

Tuning: Standard
This is all of the song except for the solos
Guitar 1- elec.dist w/ phaser
Guitar 2- elec. dist.
Guitar 3- elec. dist. w/wah-wah

Intro-Guitar 1

e|--------------------------------------------------------------------------|
B|--------------------------------------------------------------------------|
G|--------------------------------------------------------------------------|
D|--------------------------------------------------------------------------|
A|--------------------------------------------------------------------------|
E|-0-0-0-0-0-0-0-0-0-0-0-0-0-0-0-0-0-0-0-0-0-0-0-0-0-0-0-0-0-0-0-0-0-0-0-0--|

  Guitar 2-intro
e|----------------------|
B|----------------------|
G|----------------------|
D|----------------------|
A|----------------------|
E|--7---5---3--3h5---3--|
[ Tab from: http://www.guitartabs.cc/tabs/k/kenny_wayne_shepherd/slow_ride_tab_ver_3.html ]
  Guitar 2-verse--------------|extremely quiet-Repeat throughout verse
e|----------------------------|
B|-----------8-----8------8---|
G|-----------7-----7------7---|
D|-----------6-----6------6---|
A|-----------7-----7------7---|
E|---0--0-0-----0-----0-0-----|

  Guitar 3-verse--Repeat throughout
e|---------------------------------------------------------------------------|
B|---------------------------------------------------------------------------|
G|--9--7--------------7--9-------------------------------------------------7-|
D|--------7--5----7/9-------7---7-7-7--5--------------7-7-7-5-----------7h9--|
A|--------------7--------------------------7------------------7--------------|
E|--------------------------------------------0/15/0-------------0/15/0------|

  Bridge-Guitar 2 and 3(without wah)
e|--------------|
B|--------------|
G|-4--------2---|
D|-4--------2---|
A|-2--------0---|
E|------0-0-----|

 Chorus-Guitar 2 and 3 (without wah)
e|----------------------------------------|
B|------------------(insert wah on trill)-|      Guitar 2 plays verse during
G|----------------------------------------|      trill.
D|-7/9--7-5-5/-5--------------------------|
A|-x----x-x-x--x----5tr7------------------|
E|-5/7--5-3-3/-3--------------------------|


h=hammer on
/=slide
tr=trill

Peace