Kenny Wayne Shepherd - In Too Deep Chords & Tabs

 

In Too Deep Chords & Tabs

Kenny Wayne Shepherd Chords & Tabs

Version: 2 Type: Tab

In Too Deep Tab

Tuning: Standard

This is the whole song except for the solos and lead fills.  I will work on those once I 
my CD's out of a storage room.  Figures are in order of occurance.
[ Tab from: http://www.guitartabs.cc/tabs/k/kenny_wayne_shepherd/in_too_deep_tab_ver_2.html ]
  Fig 1.
e|-17>------------------------------------8-8-8>--------|
B|-17>------------------------------------8-8-8>--------|
G|----------5-----5-7b9r7-5--------5--------------------|Main Riff
D|------5h7---5-7-----------7--5h7----5-7---------------|
A|------0---0-0-0-----------0--0---0--0-0---------------|
E|------------------------------------------------------|
 Fig. 2
e|--------------------------------------------------------------------------|
B|--------------------------------------------------------------------------|
G---------------------------------------------------------------------------|
D|--------------------------------------------------------------------------|
A|-10-10-10-10-10-10-10-10-10-10-10-10-10-10-10-10-10-10-8-8-8-8-8-8-8-8-7--|
E|-8--8--8--8--8--8--8--8--8--8--8--8--8--8--8--8--8--8--6-6-6-6-6-6-6-6-5--|
  Fig. 3
e|-----------------------------------|
B|-----------------------------------|
G|-----------------------------------|
D|-----x-5h7-x-----x-5h7-------------|
A|-----x-----x-----x---------3---5---|
E|-3h5-x-----x-3h5-x-----3h5---3-----|
  Fig. 4
e|---------------------------------------------------------------|
B|---------------------------------------------------------------|
G|-9-9-9-9---------------------7-7-7-7-7-7-7-5-5-5-5-3-3-3-3-2---|
D|-9-9-9-9(Repeat a few times)-7-7-7-7-7-7-7-5-5-5-5-3-3-3-3-2---|
A|-7-7-7-7---------------------5-5-5-5-5-5-5-3-3-3-3-1-1-1-1-0---|
E|---------------------------------------------------------------|

  Kenny Wayne Rocks  !!!!!!