Kenny Wayne Shepherd - Everytime It Rains Chords & Tabs

 

Everytime It Rains Chords & Tabs

Kenny Wayne Shepherd Chords & Tabs

Version: 1 Type: Tab 0 ratings
1 star 2 stars 3 stars 4 stars 5 stars
comments

Everytime It Rains Tab

   
Person: Gonzoman

song: Every Time it Rains

artist: Kenny Wayne Shepherd Band

tab: ============================
|  Every Time It Rains  | by the Kenny Wayne Shepherd Band
============================from their 1999 release, Live On.

Tabbed by Gonzoman: [gonzoman_99@yahoo.com]
Visit the most comprehensive blues guitar tab page on the net!
------->  www.blues-guitar.homepage.com  <------------------

All right, I got tired of waiting for somebody else to post this stuff,
so I 
tabbed it out myself.  My hope is to get all the stuff on KWS' new
album on 
paper soon, but we'll see how I do....

I've done the best I could tabbing out the main riffs and such, but the
solos 
I'm not even gonna try for.  If someone is feeling froggy enough to
actually 
get them right, e-mail me and I'll add it on.  Listen to the recording
for a 
better idea of what's here....

Tune Slide Guitar to Open E (Capo 1)

Riff#1: (tab relative to capo)
Acoustic Guitar (slide)
e|---------------------------------------
B|---------------------------------------
G|---------------------------------------
D|-----0------0--/3-0---0---0------------
A|-------0--3---------3---2--------------
E|--0-------------------------/3--0------

sometimes Kenny throws this in the mix.. use in place of one main
riff...
e|---------------------------------------   you can hear this at 0:07-0:11  
B|---------------------------------------   on the CD...
G|---------------------------------------
D|-----0------0--/3-0---0----------------
A|-------0--3---------3---2h3p2----------
E|--0---------------------------/3-0-----
[ Tab from: http://www.guitartabs.cc/tabs/k/kenny_wayne_shepherd/everytime_it_rains_tab.html ]
PRE-SWIRLY-NOISE-RIFF
   (2:13)    (2:18)
e|-0~~~~~~----------------------------------------------------
B|------------------------------------------------------------  afterthis
G|------------------------------------------------------------  you stop for        
D|-------------------0~~~-------0--------------------0~~~-----  some swirly 
A|--------------0-/3-------0-/3---/3-0----------0-/3----------  noises!!!
E|------------0------------------------/3--0~~~---------------

Play Riff#1 over and over again pretty much for the whole song,
except for the Pre-Swirly-Noise part, which is explained above.  

Dust can't dry, rust takes hold,
See it in the sky, you're gonna go,
Every time it rains...
Every time it rains...

Clouds come, standing in the doorway
You run, why you wanna run away?
Sky falls, take it as a sign..
Who knows what I'm gonna find?
Every time it rains...

When the rivers rise, you watch it all come down,
See it in your eyes, it doesn't make a sound,
Every time it rains...
Every time it rains...

Clouds come, standing in the doorway
You run, why yo wanna run away?
Sky falls, take it as a sign,
Who knows what I'm gonna find?
Every time it rains...
Oooh, every time it rains...

Dust can't dry, rust takes hold,
See it in the sky, you wanna go,
Every time it rains...
Every time it rains...

Clouds come, standing in the doorway
You run, why you wanna run away?
Sky falls, take it as a sign,
Who knows what I'm gonna find?
Every time it rains...
Every time it rains...

(PRE-SWIRLY-NOISE-RIFF)
((( SWIRLY NOISE )))

The dust can't dry, rust takes hold,
See it in the sky, you wanna go,
Every time it rains...
Every time it rains...

Clouds come, standing in the doorway
You run, why you wanna run away?
Sky falls, take it as a sign,
Who knows what I'm gonna find?
Every time it rains...
Every time it rains...

             Enjoy!     
        
+============================================+
|  Visit the most comprehensive blues guitar |
|         tab page on the net at             |  HELP EVER, HURT NEVER.
|                                            |  
|     www.blues-guitar.homepage.com          |  Keep The blues in your 
|                                            |  soul and the strings 
| for hundreds of blues tabs, and more from  |  under your fingers!  
|   Kenny Wayne Shepherd Band's new album!   |
+============================================+

Comments