Kenny Wayne Shepherd - Electric Lullabye Chords & Tabs

 

Electric Lullabye Chords & Tabs

Kenny Wayne Shepherd Chords & Tabs

Version: 1 Type: Tab 0 ratings
1 star 2 stars 3 stars 4 stars 5 stars
comments

Electric Lullabye Tab

K.W.S.
Electric Lullabye
Great song, played slow.

By: gxj87

e|---------------------------------------------------------|
B|----------------------------12b14-14r12~--9-12-----------|
G|-9/11-11/13---13/14-14-\13---------------------11b12r11--|
D|---------------------------------------------------------|
A|-7/9--9-/11---11/12-12-\11-------------------------------|
E|---------------------------------------------------------|

e|----------------------------------------------5-7--------|
B|-11b12r11p9h11~~--------------------------7b9-----7b9r7-5|
G|---------------------9-9~--12r11p9----9~-----------------|
D|-----------------/11---------------11--------------------|
A|---------------------------------------------------------|
E|---------------------------------------------------------|

e|---------------------------------------------------------|
B|-----------------------------------------12b14-14r12~--12|
G|-6/8-\6----------9----9~--12r11-9----9~------------------|
D|--------/9~--/11---11-------------11---------------------|
A|---------------------------------------------------------|
E|---------------------------------------------------------|

e|----12-14b15-14b15r14--12-14~----------------------------|
B|-14------------------------------------------------------|
G|----------------------------------9-9~--12r11-9----9~----|
D|------------------------------/11---------------11-------|
A|---------------------------------------------------------|
E|---------------------------------------------------------|

e|-----5-7-------------------------------------------------|
B|-7b9-----7b9r7--9-12-------------------------------------|
G|---------------------11b12r11-9----9-11-9--/13-\11--9/11~|
D|--------------------------------11-----------------------|
A|---------------------------------------------------------|
E|---------------------------------------------------------|
[ Tab from: http://www.guitartabs.cc/tabs/k/kenny_wayne_shepherd/electric_lullabye_tab.html ]
e|------------12b14-12b14-12~-14-----------12b14-12b14-12--|
B|-12b14r12~----------------------12b14r12-----------------|
G|---------------------------------------------------------|
D|---------------------------------------------------------|
A|---------------------------------------------------------|
E|---------------------------------------------------------|

e|-----------12b14~r12--14b16-14b16--12~--12----12---------|
B|-12b14r12~------------------------------12h14-12---------|
G|-------------------------------------------------13h14p13|
D|---------------------------------------------------------|
A|---------------------------------------------------------|
E|---------------------------------------------------------|

e|---------------------------------------------------------|
B|---------------------------------------12b14-14r12~--12--|
G|--------------11-/13~-13h14-13h14-13~--------------------|
D|-15-13--11h13--------------------------------------------|
A|---------------------------------------------------------|
E|---------------------------------------------------------|

e|----12--14b16-14b16-12h14~-------------------------------|
B|-14------------------------------------------------------|
G|--------------------------------9----9~--13~11p9----9~---|
D|----------------------------/11---11-------------11------|
A|---------------------------------------------------------|
E|---------------------------------------------------------|

e|-----5-7---------------------------------------12-12~----|
B|-7b9-----7b9r7-5---5-7-5--5-7-5-/9-7-5/7~--/14-----------|
G|-----------------7---------------------------------------|
D|---------------------------------------------------------|
A|---------------------------------------------------------|
E|---------------------------------------------------------|

Thats all I have time to do right now, but with that you
should be able to get the rest.  Have fun!

gxj87

Comments