Kenny Wayne Shepherd - Deja Voodoo Chords & Tabs

 

Kenny Wayne Shepherd Chords & Tabs

Version: 1 Type: Tab 0 ratings
1 star 2 stars 3 stars 4 stars 5 stars
comments

Deja Voodoo Tab

kws- deja voodoo    tabbed by: hunta

:---/12``--------b(17)-----------------15--------------|
:--------------------------------------14--------------|
:-------------------------/(12)\(0)--------\(12)-------|
:------------------------------------------------------|
:------------------------------------------------------|
:------------------------------------------------------|


:-------------------------------------------------------------|
:----17--(17)-------15----------------------------------------|
:---b14--(14)-------12---14-12--------------------------------|
:----------------------14-----14-14p12-------9-(9)------2-----|(2)
:-------------------------------------------------------------|
:-------------------------------------------------------------|

:----------------------------------------------------------------------|
:--------------------------3-----------------------------------x-------|
:---0---2-0-------------/4---------4\2--------------------(14)--x------|
:-----2-----2--2p0-------------------------0h2p0``trill----------12\---|
:----------------------------------------------------------------------|
:----------------------------------------------------------------------|

:----------------------------------------17/19--17h19p17\15-----------|
:---x---14--12-----------------15/17-------------------------17-15-17-|
:---x-br14--12---x----------------------------------------------------|
:---x------------14--14p12--------------------------------------------|
:---------------------------------------------------------------------|
:---------------------------------------------------------------------|

:---17----------------------------------------------------------------|
:---17--15--------------------------------------------15--------------|
:-----------15\14--12-------------------------12-14/16--16/14-14--b12-|
:----------------------14-12-14--12-----12/14-------------------------|
:---------------------------------------------------------------------|
:---------------------------------------------------------------------|
[ Tab from: http://www.guitartabs.cc/tabs/k/kenny_wayne_shepherd/deja_voodoo_tab.html ]
:-------------------------------------------0----0--------------------------|
:----------------------------------------3-------3/5--0---------------------|
:---------------------2h3p2---------2/4-----------------0----2h3p2p0--------|
:---14p12-12--14p12---------------------------------------------------2-(2)-|
:---------------------------------------------------------------------------|
:---------------------------------------------------------------------------|

:---------------------------------------------------------------------------|
:---------------------------------------------------------------------------|
:-----------------------------------4p2p0-----------------------------------|
:---0---------------------(2)--------------8\7-8\7-8\7-8\7-8\7-8\7-8\7-8\7--|
:-----2--0h1p0----10x--0----------------------------------------------------|
:--------------3------------------------------------------------------------|

:--------------------------------------------3-------0---------------|
:--------------------------------3/5-(5)````---5p3p0---3/`````````---|
:--------------------------------------------------------------------|
:---8\7-8\7-7-5------------------------------------------------------|
:---------------7-(7)-7p5--------------------------------------------|
:--------------------------------------------------------------------|

:-------------|
:-------------|
:-------------|
:---h(2)------|then theres a solo but i havent figured the whole thing out
:-------------|i think its in a7 or somthing if you wanna try
:---0----14x--|
               end of intro
  verse:
:---------7--7-------------------------------|
:---------8--8------------8-8----------------|
:---------7--7------------7-7----------------|
:---------9--9------------6-6----------------|
:---------7--7-------0----7-7-------5h7------|
:---0--0---------7-6------------5h7----------|

  chorus:
:--------------------------------------------------------------------------|
:--------------------------------------------------------------------------|
:--------------------------------------------------------------------------|
:---------2-0----------2-------------------------2-0--------2--------------|
:---2---------2--------0--0---0--2------2------------2-0----0-0-0-0-2------|
:---0--0--------b3-(0)------3------b3---0----0-0---------b3-----------b3---|

:--------------------2---2-------------15-----------12--12\----|
:--------------------x---x-------------14-----------12--12\----|
:--------------------2---2-------------------------------------|
:----------2-0-------1---1-------------------------------------|
:---2--2-------0-1---2-2-2-------------------------------------|
:---0--0-------------------------------------------------------|
Comments