Kenny Wayne Shepherd - Blue On Black Chords & Tabs

 

Blue On Black Chords & Tabs

Kenny Wayne Shepherd Chords & Tabs

Version: 1 Type: Tab 0 ratings
1 star 2 stars 3 stars 4 stars 5 stars
comments

Blue On Black Tab

   
Blue on black(kenny wayne sheperd)
Tabbed by Brad Voris (shuriken)
Standard Tuning
Guitar 1:= acoustic no effects
Guitar 2:= Electric slight dist / flange
( Kenny Wayne uses a tube screamer, and a flage and a wah so good luck
on the effects!)
If you like this let me know Shuriken_ninja@yahoo.com
Guitar 1 (repeat 5x's)
        h
------------------------3-3-3---------------3-3-3-------
-3-3----------3-3--3-xx-3-3-3---3-3--3--xx--3-3-3-------
-2-2----------0-0--0-xx-0-0-0---0-0--0--xx--0-0-0-------
-0-0----------0-0--2-xx-0-0-0---0-0--2--xx--0-0-0-------
------0-2--3--3-3--3----2-2-2---3-3--3------2-2-2-------
--------------------------------------------------------

Guitar 2
fill 1
         b\/\/\   b\/\/   \/\           b
---------------|---------------|-------11-----
---------------|---------------|--------------
---------------|-14------------|--------------
---------------|-13-----13-----|-13-11--------
--11-11--13----|---------------|--------------
---------------|---------------|--------------
[ Tab from: http://www.guitartabs.cc/tabs/k/kenny_wayne_shepherd/blue_on_black_tab.html ]
Guitar 1
        h
------------------------3-3-3---------------3-3-3--------
-3-3----------3-3--3-xx-3-3-3---3-3--3--xx--3-3-3--------
-2-2----------0-0--0-xx-0-0-0---0-0--0--xx--0-0-0--------
-0-0----------0-0--2-xx-0-0-0---0-0--2--xx--0-0-0--------
------0-2--3--3-3--3----2-2-2---3-3--3------2-2-2--------
---------------------------------------------------------

        h
------------------------3-3-3---------------3-3-3--------
-3-3----------3-3--3-xx-3-3-3---3-3--3--xx--3-3-3--------
-2-2----------0-0--0-xx-0-0-0---0-0--0--xx--0-0-0--------
-0-0----------0-0--2-xx-0-0-0---0-0--2--xx--0-0-0--------
------0-2--3--3-3--3----2-2-2---3-3--3------2-2-2--------
---------------------------------------------------------

(solo)
Guitar 2
         b\/\/\   b\/\/   \/\           b    p        h
---------------|---------------|-------------------------
---------------|---------------|-------16--16-14---------
---------------|-14------------|-----------------15-13-15
---------------|-13-----13-----|-13-11-------------------
--11-11--13----|---------------|-------------------------
---------------|---------------|-------------------------

repeat 3 or 4 x's
  br       h      br        h        
------------------------------------|
-16-(16)-16-14----16-(16)-16-14-----|
---------------15---------------15--|
------------------------------------|
------------------------------------|
------------------------------------|

If ya want more llet me know I am tired of this shit
Comments