Kenny Wayne Shepherd - Be Mine Chords & Tabs

 

Be Mine Chords & Tabs

Kenny Wayne Shepherd Chords & Tabs

Version: 1 Type: Tab 0 ratings
1 star 2 stars 3 stars 4 stars 5 stars
comments

Be Mine Tab

Be Mine - Kenny Wayne Shepherd
Album: The Place You're In
Tanscribed by Brennan Lentz

This tab is about 98% correct if you count the little differences in each
verse that I was too lazy to write in. This should get you to sound just 
like Kenny though, which is probably what you're after. Enjoy!

Intro:

E-----x-x-------x-x-x--------------------x-x-x-x--------|
B-----x-x-------x-x-x--------------------x-x-x-x-------:|
G-----x-x-------x-x-x--------------------x-x-x-x--------| X2
D-----x-x-------x-x-x--------------------x-x-x-x--------|
A-----x-x-5-7---x-x-x-----5~-----5-5-7---x-x-x-x-----5-:|
E-12\-x-x-----0-x-x-x-5-7----12\-------0-x-x-x-x-5-7----|

E-------------------x-x------------------x-x-x-x--------|
B-------------------x-x------------------x-x-x-x--------|
G-------------------x-x------------------x-x-x-x--------|
D------5-7-7/9\7-5--x-x------------------x-x-x-x--------|
A--5-7--------------x-x-----5~-----5-7---x-x-x-x------5-|
E-------------------x-x-5-7----12\-----0-x-x-x-x--5-7---|

E-----x-x-----x-x-x-x--------------------x-x-x-x-----------|
B-----x-x-----x-x-x-x--------------------x-x-x-x-----------|
G-----x-x-----x-x-x-x--------------------x-x-x-x-----------|
D-----x-x-----x-x-x-x--------------------x-x-x-x-----------|
A-----x-x-5-7-x-x-x-x-----5~-----5-5-7---x-x-x-x-----5-----|
E-12\-x-x-----0-x-x-x-5-7----12\-------0-x-x-x-x-5-7---12\-|

Verse: (Repeat through the whole verse)

E-----x-x-----x-x-x-x--------------------x-x-x-x--------|
B-----x-x-----x-x-x-x--------------------x-x-x-x-------:|
G-----x-x-----x-x-x-x--------------------x-x-x-x--------|
D-----x-x-----x-x-x-x--------------------x-x-x-x--------|
A-----x-x-5-7-x-x-x-x-----5~-----5-5-7---x-x-x-x-----5-:|
E-12\-x-x-----0-x-x-x-5-7----12\-------0-x-x-x-x-5-7----|
      The ladies eyes are brewin' red.............

2nd verse - lead guitar fill # 1
E------------------------------------------------12---(12)--------|
B---------------------------------------------15-15---(15)--------|
G-------12b14b------------------12-14-12~--------14b16-14-12------|
D-12-14--------12--12-14--/12-14---------14-12--------------14-12-|
A----------------14-----------------------------------------------|
E-----------------------------------------------------------------|

2nd verse - Lead guitar fill # 2
E---12~----------------------12------------12----------------------|
B-15---------------------------15-12-----12--15-12-----------------|
G-------14b16b14-12-----------------14b16---------14b16-14-12--12~-|
D------------------14-12-14~---------------------------------14----|
A------------------------------------------------------------------|
E------------------------------------------------------------------|

Chorus (listen for proper strumming):

E-------------------------|
B-------------------------|
G--6666-6666-7777---------|
D--6666-6666-7777-7-7-5-5-| (back to intro)
A--4444-4444-5555-7-7-5-5-|
E-----------------5-5-3-3-|

Bridge:
[ Tab from: http://www.guitartabs.cc/tabs/k/kenny_wayne_shepherd/be_mine_tab.html ]
E----------------------|
B----------------------|
G----------------------| X 8
D----------------------|
A-7-6-5----------------|
E-------7-6-5--3-5-3-0-|

Solo (rhythm guitar plays the verse over top of this):

E-----------------------------------12----12---\--|
B-15---\----------------------------15----15---\--|
G-14b16\------12-14-14b16--12~------14b16-14b16\--|
D-----------14-----------------14\----------------|
A-------------------------------------------------|
E-------------------------------------------------|

E----------------------------------------------------|
B-------------------------------------------15b17b15-|
G----12-14-14b16--12~-----------------12b13----------|
D-14------------------14-12-14-14-14~----------------|
A----------------------------------------------------|
E----------------------------------------------------|

(bend fret 15 up a whole note and back down repeatedly)
note: the backup guitarist plays the E-string bend, while
Kenny plays the bend on the B-string
E----------------------------------b17b15-17b15-17b15-|
B-17b15-17b15-17b15-17b15-17b15----b17b15-17b15-17b15-|
G-------------------------------12--------------------|
D-----------------------------------------------------|
A-----------------------------------------------------|
E-----------------------------------------------------|

E-17b15-17b15--15~--15b17b15-17b15-17b15-17b15-17b15--|
B-17b15-17b15-(15)--15b17b15-17b15-17b15-17b15-17b15--|
G-----------------------------------------------------|
D-----------------------------------------------------|
A-----------------------------------------------------|
E-----------------------------------------------------|

E-17b15-----15b17b15-17b15-17b15--------12---------12---|
B-17b15-12--15b17b15-17b15-17b15--15b17---12-15b17---12-|
G-------------------------------------------------------|
D-------------------------------------------------------|
A-------------------------------------------------------|
E-------------------------------------------------------|

E--15b17--15b18--15b17--15b17-15-12---|
B----------------------------------15-|
G-------------------------------------|
D-------------------------------------|
A-------------------------------------|
E-------------------------------------|

E--12-------------12-----------------------------|
B----15-12------12--15-12------------------------|
G----------14b16---------14b16-14-12--12~--------|
D-----------------------------------14----14-12--|
A------------------------------------------------|
E------------------------------------------------|

E----15-15--15-15--15-15--15--15--15-------------|
B----15-15--15-15--15-15--15--15--15--14b16------|
G-------------------------------------14b16-12---|
D--14-----14-----14-----14--14--14------------14-|
A------------------------------------------------|
E------------------------------------------------|

E--------------------------------------|
B-12-14-14b15-12-----------------------|
G-12-14-14b15-12-----------------------| End Solo
D----------------14-12-----------------|
A----------------------14-13-12--------|
E-------------------------------15-12--|

Verse

Chorus
Bridge (end song on bridge)
Comments