Kenny Chesney - Woman With You Chords & Tabs

 

Woman With You Chords & Tabs

Kenny Chesney Chords & Tabs

Version: 1 Type: Tab 0 ratings
1 star 2 stars 3 stars 4 stars 5 stars
comments

Woman With You Tab

-------------10----------------------------------------|
--------10b------10b~r--8-----8-9-10-10b---------------|
--12\----------------------9b-------------9br--7-------|
--12\--------------------------------------------------|
-------------------------------------------------------|
-------------------------------------------------------|

[ Tab from: http://www.guitartabs.cc/tabs/k/kenny_chesney/woman_with_you_tab.html ]
-------15-----------------15--------------------|
--15b------b15r--13-------15--------------------|
---------------------14b-----b14rp12------12----|
--------------------------------------14--------|
------------------------------------------------|
------------------------------------------------|


------20----------------------------------------|
-22b-----b22rp20--20---------13p12--------15~---|
------------------19h21------------12-----------|
-------------------------/12----------12--------|
------------------------------------------------|
------------------------------------------------|
Comments