Kenny Chesney - When The Sun Goes Down Chords & Tabs

 

When The Sun Goes Down Chords & Tabs

Kenny Chesney Chords & Tabs

Version: 1 Type: Tab 0 ratings
1 star 2 stars 3 stars 4 stars 5 stars
comments

When The Sun Goes Down Tab

e 12-12-12--10-10-10---9--9-----5-5-5--7--9-7--------
B 14-14-14--12-12-12--10-10-----7-7-7--9-10-9--------
G ---------------------------------------------------
D ---------------------------------------------------
A ---------------------------------------------------
E ---------------------------------------------------

e 12-12-12--10-10-10---9--9-----2/4-5----------------
B 14-14-14--12-12-12--10-10-----3/5-5----------------
G ---------------------------------------------------
D ---------------------------------------------------
A ---------------------------------------------------
E ---------------------------------------------------
[ Tab from: http://www.guitartabs.cc/tabs/k/kenny_chesney/when_the_sun_goes_down_tab.html ]
Comments