Kenny Chesney - Theres Goes My Life Chords & Tabs

 

Theres Goes My Life Chords & Tabs

Kenny Chesney Chords & Tabs

Version: 1 Type: Tab 0 ratings
1 star 2 stars 3 stars 4 stars 5 stars
comments

Theres Goes My Life Tab

   
Tabbed by:Jeremy Heninger
Email:hhstennis_playa03@yahoo.com

Tuning:Standard (capo on 2nd fret)
This intro includes both the acoustic and electric
guitar that are being played. Listen closely for 
notes that are ghosted (difficult to hear) 
and add your own little dittys wherever! Please rate this!!!

e|-------------------------0------------------|
B|-----3-----3--------------3-3---------------|
G|-2p0------0-----0-2---2----2----------------|
D|----4--2h4---0h2-----4-4--------------------|
A|--------------------0-----------------------|
E|--------------------------------------------|

e|-------------------0~-----------------------|
B|-----3-----3-------2~-----------------------|
G|-2p0------0---0-2--2~-----------------------|
D|----4--2h4---2-----2~-----------------------|
A|-------------------x------------------------|
E|-------------------x------------------------|
Kenny starts singing:
e|--------------------------------------------|
B|---3----3----3----2----3----3----3------2---|
G|--2-2--0-0--2-2--2-2--2-2--0-0--2-2---2--2-2|
D|-0----0----0----2----0----0----0-----2-2--2-|
A|------------------------------------0-------|
E|--------------------------------------------|
  all he..                        just a kid..
e|-----------3-----------------0--------------|
B|----------2-2----3-----------2----3----3----|
G|------0--0--------0-----0-2--2---2-2--0-0---|
D|---2-2--------2h4----0h2-----2--0----0------|
A|--2-2------------------------x--------------|
E|-0---------------------------x--------------|
  myself..                        all he..
e|---------------------------------------------|
B|---3-------2~---3----3----3------2-----------|
G|--2-2---2-2----2-2--0-0--2-2---2--2-2------0~|
D|-0-----2-2----0----0----0-----2-2--2----2-2--|
A|------0----------------------0---------2-2---|
E|--------------------------------------0------|
                so much..     out on..  oh well.   
e|---------------------------------------------|
B|------2~---------3---------3---------3-------|
G|---2-2---------2--2-2----0--0-0----2--2-2----|
D|--2-2---------0-0--0----0-0--0----0-0--0-----|
A|-------------0---------0---------0-----------|
E|-0-------------------------------------------|
  and he said..there     goes          my life
e|---------------------------------------------|
B|-----2---------3---------3---------3---------|
G|---2--2-2----2--2-2----0--0-0----2--2-2------|
D|--2-2--2----0-0--0----0-0--0----0-0--0-------|
A|-0---------0---------0---------0-------------|
E|---------------------------------------------|
             there    goes..   my future       
e|---------------------------------------------|
B|-----3---------3---------3------3~-------3~--|
G|---2--2-2----0--0-0----2--2-2---0~----0-0----|
D|--0-0--0----2-2--2----0-0--0----0~---0-0-----|
A|-----------2--------------------x~--0--------|
E|-2-------------------2----------3~-----------|
  my everything.. kiss it all..goodbye
e|---------------------------------------------|
B|-----3-----3---------------------------------|
G|-2p0------0-----0-2--------------------------|
D|----4--2h4---0h2----2h4-2p0------------------|
A|---------------------------2p0---------------|
E|---------------------------------------------|
  There goes my life...
e|---------------------------------------------|
B|---3----3----3----2----3----3----3------2----|
G|--2-2--0-0--2-2--2-2--2-2--0-0--2-2---2--2-2-|
D|-0----0----0----2----0----0----0-----2-2--2--|
A|------------------------------------0--------|
E|---------------------------------------------|
  couple years...diapers later..   refrigerator
e|---------------------------------------------|
B|------3~-----3~---3----3----3--------2~---3--|
G|---0-2----2-2----2-2--0-0--2-2----2-2----2-2-|
D|--2-2----0-0----0----0----0------2-2----0----|
A|-2------------------------------0------------|
E|--------0------------------------------------|
  o yea..little girl.....up those stairs
[ Tab from: http://www.guitartabs.cc/tabs/k/kenny_chesney/theres_goes_my_life_tab.html ]
e|---------------------------------------------|
B|---3----3-------2------3--------2------------|
G|--0-0--2-2---2-2----0-0-0----2-2-2-2/7~------|
D|-0----0-----2-2----2-2---2--2-2---2----------|
A|-----------0------2--------0-----------------|
E|---------------------------------------------|
  dragging  teddy bear..    and he smiles
e|---------------------------------------------|
B|-----3--------3--------3--------2--------3---|
G|---2--2-2---0--0-0---2--2-2---2--2-2---2--2-2|
D|--0-0--0---0-0--0---0-0--0---2-2--2---0-0--0-|
A|-0--------0--------0--------0--------0-------|
E|---------------------------------------------|
  there goes           my life         there
e|---------------------------------------------|
B|-----3--------3--------3--------3--------3---|
G|---0--0-0---2--2-2---2--2-2---0--0-0---2--2-2|
D|--0-0--0---0-0--0---0-0--0---2-2--2---0-0--0-|
A|-0--------0-----------------2----------------|
E|-------------------2-----------------2-------|
   goes      future  everything i love you daddy    
e|---------------------------------------------|
B|-----3---------3--------3--------------------|
G|---0--0-0----2--2-2---0--0-0-----------------|
D|--0-0--0----2-2--2---0-0--0------------------|
A|-0---------0--------0------------------------|
E|---------------------------------------------|
  goodnight there goes my life
e|---------------------------------------------|
B|-----3--------3--------3--------3--------3---|
G|---2--2-2---0--0-0---2--2-2---0--0-0---2--2-2|
D|--0-0--0---2-2--2---0-0--0---0-0--0---0-0--0-|
A|----------2-----------------0----------------|
E|-2-----------------2-----------------2-------|
  she held that                    and 15 pairs
e|-----2--------2------------------------------|
B|---2--2-2---2--2-2-----3--------3--------3---|
G|--2-2--2---2-2--2----0--0-0---2--2-2---0--0--|
D|-2--------2---------0-0--0---0-0--0---2-2--2-|
A|-------------------0-----------------2-------|
E|----------------------------2----------------|
  american express            slammed the hood
e|----------------------------0~-----------------|
B|-----3--------3--------3----2~-------3~------3~|
G|---2--2-2---0--0-0---2--2-2-2~--2--2------2-2--|
D|--0-0--0---0-0--0---0-0--0--2~----4-4----0-0---|
A|----------0-----------------x----0-------------|
E|-2-----------------2--------x-----------2------|
  good to go hugged       coast
e|-------0~--------------------------------------|
B|-------2~------3--------3--------3--------2----|
G|---0-2-2~----2--2-2---0--0-0---2--2-2---2--2-2-|
D|-0h----2~---0-0--0---0-0--0---0-0--0---2-2--2--|
A|-------x---0--------0--------0--------0--------|
E|-------x---------------------------------------|
     and he cried    there goes         my life
e|-----------------------------------------------|
B|-----3--------3--------3--------3--------3-----|
G|---2--2-2---0--0-0---2--2-2---2--2-2---0--0-0--|
D|--0-0--0---0-0--0---0-0--0---0-0--0---2-2--2---|
A|-0--------0--------0-----------------2---------|
E|----------------------------2------------------|
  there goes       my future         I love you
e|---------0~-------0h2--------------------------|
B|-----3---3~----3-3--------3-----3--------2-----|
G|---2--2--0~---0-0-----2p0------0-----0-2-2-----|
D|--0-0--0-0~--0-----------4--2h4---0h2----------|
A|---------0~-0----------------------------------|
E|-2-------x-------------------------------------|
   baby goodbye           there goes my life
e|-----------------------------------------------|
B|-----3-----3--------2--------------------------|
G|-2p0------0-----0-2-2--------------------------|
D|----4--2h4---0h2-------------------------------|
A|-----------------------------------------------|
E|-----------------------------------------------|
    there goes my life, baby goodbye (fade out)

Thats the whole thing! Enjoy and please rate it 
because this took me forever, peace out!


| /  slide up
| \  slide down
| h  hammer-on
| p  pull-off
| ~  let ring
| +  harmonic
| x  Mute note
===============================================================================
Comments