Kenna - War In Me Chords & Tabs

 

War In Me Chords & Tabs

Kenna Chords & Tabs

Version: 2 Type: Tab 0 ratings
1 star 2 stars 3 stars 4 stars 5 stars
comments

War In Me Tab

-----------------------------------------------------------------------
			     War In Me - Kenna
-----------------------------------------------------------------------

Drop D Tuning.

By: Daniel McClelland (AKA Demented Son)

Intro
e|--------------------------------------------------------------------|
B|---------------------------------1-0--------------------------------|
G|------2-------2-------2-------2-------------------------------------|
D|----2-------2-------2-------2---------------------------------------|
A|-0------------------------------------------------------------------|
D|---------3-------2-------0------------------------------------------|

e|--------------------------------------------------------------------|
B|--------------------------------------------------------------------|
G|------2-------2-------2-------2-------------------------------------|
D|----2-------2-------2-------2---------------------------------------|
A|-0------------------------------------------------------------------|
D|---------3-------2-------0------------------------------------------|

Verse 1
e|--------------------------------------------------------------------|
B|------0-------0-------0----------------0-------0-------0------------|
G|------------------------------2---------------------------2-0------2|
D|----2-------2-------2-------2--------2-------2-------2-----------2--|
A|-0--------------------------------0---------------------------------|
D|---------3-------2-------0----------------3-------2-----------0-----|

e|--------------------------------------------------------------------|
B|------0------0------0--------------0------0------0-------------0----|
G|---------------------------2------------------------2-0------2---2--|
D|----2------2------2------2-------2------2------2-----------2--------|
A|-0----------------------------0-------------------------------------|
D|--------3------2------0--------------3------2-----------0-----------|

Pre-Chorus 1
e|--------------------------------------------------------------------|
B|------0----------------------------0----------------------0---------|
G|-------------2------2------0--------------2------0------------------|
D|----2------2------2------2-------2------2------2-------2------------|
A|-0----------------------------0-------------------------------------|
D|--------3------2------0--------------3------2-------0---------------|

Chorus 1
e|--------------------------------------------------------------------|
B|--0-000--0-000--0-00-----------0-000--0-00---0-0--------------------|
G|---------------------2--0------------------------2------------------|
D|--------------------------3-2---------------------------------------|
A|--------------------------------------------------------------------|
D|--------------------------------------------------------------------|

Verse 2
e|--------------------------------------------------------------------|
B|------0-------0-------0----------------0-------0-------0------------|
G|------------------------------2---------------------------2-0------2|
D|----2-------2-------2-------2--------2-------2-------2-----------2--|
A|-0--------------------------------0---------------------------------|
D|---------3-------2-------0----------------3-------2-----------0-----|
[ Tab from: http://www.guitartabs.cc/tabs/k/kenna/war_in_me_tab_ver_2.html ]
e|--------------------------------------------------------------------|
B|------0------0------0--------------0------0------0-------------0----|
G|---------------------------2------------------------2-0------2---2--|
D|----2------2------2------2-------2------2------2-----------2--------|
A|-0----------------------------0-------------------------------------|
D|--------3------2------0--------------3------2-----------0-----------|

Pre-Chorus 2
e|--------------------------------------------------------------------|
B|------0----------------------------0----------------------0---------|
G|-------------2------2------0--------------2------0------------------|
D|----2------2------2------2-------2------2------2-------2------------|
A|-0----------------------------0-------------------------------------|
D|--------3------2------0--------------3------2-------0---------------|

Chorus 2
e|--------------------------------------------------------------------|
B|--0-000--0-000--0-00-----------0-000--0-000--0-0--------------------|
G|---------------------2--0------------------------2-0----------------|
D|--------------------------3-2------------------------3-2------------|
A|--------------------------------------------------------------------|
D|--------------------------------------------------------------------|

e|--------------------------------------------------------------------|
B|--0-000--0-000--0-00-----------0-000--0-000--0-0--------------------|
G|---------------------2--0------------------------2-0----------------|
D|--------------------------3-2------------------------3-2------------|
A|--------------------------------------------------------------------|
D|--------------------------------------------------------------------|

Riff 1
e|-------------0--------------------------------------000-------------|
B|-----1--1-------1--1----3--0--0---1----------111-00-----111-00------|
G|-222------2----------2----------0---2-0--222------------------------|
D|----------------------------------------2---------------------------|
A|--------------------------------------------------------------------|
D|--------------------------------------------------------------------|

e|------------------------0000----------------------------------------|
B|----3--0-----000-111-01-------3--3--1------00-1----1-1--3---1-3-----|
G|----------0----------------------------0--------2-------------------|
D|--------------------------------------------------------------------|
A|--------------------------------------------------------------------|
D|--------------------------------------------------------------------|

e|--0000--------------------------------------------------------------|
B|--------1--3--------000-----0---1-----1-0---------------------------|
G|--------------------------2--------2------2-0-----------------------|
D|----------------------------------------------2-0---2---------------|
A|--------------------------------------------------3-----------------|
D|--------------------------------------------------------------------|

Well, this is Version 2.0! Anyway, this sounds alot more
correct. I realized that some things aren't repeated but
they are slightly different. And the chorus should be 
correct now. The riff sounds about perfect. Once again, if 
there are corrections, email me at danieloid87@yahoo.com
Comments