Kenna - War In Me Chords & Tabs

 

War In Me Chords & Tabs

Kenna Chords & Tabs

Version: 1 Type: Tab 0 ratings
1 star 2 stars 3 stars 4 stars 5 stars
comments

War In Me Tab

-----------------------------------------------------------------------
			     War In Me - Kenna
-----------------------------------------------------------------------

By: Daniel McClelland (AKA Demented Son)

Intro
e|--------------------------------------------------------------------|
B|---------------------------------1-0--------------------------------|
G|------2-------2-------2-------2-------------------------------------|
D|----2-------2-------2-------2---------------------------------------|
A|-0------------------------------------------------------------------|
D|---------3-------2-------0------------------------------------------|

Verse
e|--------------------------------------------------------------------|
B|------0-------0-------0----------------0-------0-------0------------|
G|------------------------------2---------------------------2-0------2|
D|----2-------2-------2-------2--------2-------2-------2-----------2--|
A|-0--------------------------------0---------------------------------|
D|---------3-------2-------0----------------3-------2-----------0-----|

e|--------------------------------------------------------------------|
B|------0------0------0--------------0------0------0-------------0----|
G|---------------------------2------------------------2-0------2---2--|
D|----2------2------2------2-------2------2------2-----------2--------|
A|-0----------------------------0-------------------------------------|
D|--------3------2------0--------------3------2-----------0-----------|

Pre-Chorus
e|--------------------------------------------------------------------|
B|------0----------------------------0-----------------------0--------|
G|-------------2------2------0--------------2------0-------2----------|
D|----2------2------2------2-------2------2------2-------2------------|
A|-0----------------------------0-------------------------------------|
D|--------3------2------0--------------3------2-------0---------------|
[ Tab from: http://www.guitartabs.cc/tabs/k/kenna/war_in_me_tab.html ]
Chorus (This is way off, Iím sure)
e|--------------------------------------------------------------------|
B|--0-00--0-00--0-00---3-1--0-00--0-00--0-0---------------------------|
G|-------------------2----------------------2-------------------------|
D|--------------------------------------------------------------------|
A|--------------------------------------------------------------------|
D|--------------------------------------------------------------------|

Riff 1
e|-------------0---------------------------------------000------------|
B|-----1--1-0-----1--1-0--3--0--0---1----------1--1-00----111-00------|
G|-222----------------------------0---2-0--222------------------------|
D|----------------------------------------2---------------------------|
A|--------------------------------------------------------------------|
D|--------------------------------------------------------------------|

e|------------------------0000----------------------------------------|
B|----3--0-----0000-11-00-------3--3--11----1--00-1----1-1--3---1-3---|
G|----------0-----------------------------0---------2-----------------|
D|--------------------------------------------------------------------|
A|--------------------------------------------------------------------|
D|--------------------------------------------------------------------|

e|--0000--------------------------------------------------------------|
B|--------1--3----0---0000----0---1---1-1----1---1-0------------------|
G|--------------------------2--------------2---------2-0--------------|
D|-------------------------------------------------------2-0----------|
A|-----------------------------------------------------------2-0-2----|
D|--------------------------------------------------------------------|

Order:
Intro
Verse
Pre-Chorus
Chorus
Verse
Pre-Chorus
Chorus (2 times)
Riff 1
=======================================================================

The rest of the song is made up of weird chords and stuff that I canít figure out. But Iíve got about all of the picking stuff done. Listen to the song to figure the rhythm of all the stuff.

This was a hard song to tab, and also was my first one! The chorus is hard to hear so it might be off, but everything else sounds very close. Got corrections? Send Ďem to danieloid87@yahoo.com ! Thanks!
Comments