Kemp Daniel - Death Theme Chords & Tabs

 

Death Theme Chords & Tabs

Kemp Daniel Chords & Tabs

Version: 1 Type: Tab 0 ratings
1 star 2 stars 3 stars 4 stars 5 stars
comments

Death Theme Tab

1 -3-2-1-0-3-2-1-0--3-4-5-4-3-2-1-0---------------------------------------------------------
2 ----------------------------------3-2-1-0-3-2-1-0-----------------------------------------
3 ------------------------------------------------------------------------------------------
4 --------------------------------------------------1-1-1-1-0-0-0-0-1-1-1-1-2-2-2-2-0-0-0-0-
5 ------------------------------------------------------------------------------------------
6 ------------------------------------------------------------------------------------------

(quiet on capitleized words)

Darkness falls as we go to sleep,
The reaper needs someone to eat.

He's comin' for you and we don't know when,
He's comin' to eat...to eat...your face...TONIGHT
Screamin' out loud as he rippes you apart,
No fealings he has, no brain or heart

Scream your head off as you see him come,
You know that he is...the...one!

(Chorous)
[ Tab from: http://www.guitartabs.cc/tabs/k/kemp_daniel/death_theme_tab.html ]
1 -9-7-5-3^3------------------------------------------------
2 -----------9-7-5-3^3--------------------------------------
3 ---------------------3^3^3^3^4^4^4^4^3^3^3^3^5^5^5^2^1^1^1
5-----------------------------------------------------------
6-----------------------------------------------------------

He is the o-ne, He ha-s co-me.
Death befals all he see, that includes you and me.

1 -3-2-1-0-3-2-1-0--3-4-5-4-3-2-1-0---------------------------------------------------------
2 ----------------------------------3-2-1-0-3-2-1-0-----------------------------------------
3 ------------------------------------------------------------------------------------------
4 --------------------------------------------------1-1-1-1-0-0-0-0-1-1-1-1-2-2-2-2-0-0-0-0-
5 ------------------------------------------------------------------------------------------
6 ------------------------------------------------------------------------------------------

(Chorous)

1 -9-7-5-3^3------------------------------------------------
2 -----------9-7-5-3^3--------------------------------------
3 ---------------------3^3^3^3^4^4^4^4^3^3^3^3^5^5^5^2^1^1^1
5-----------------------------------------------------------
6-----------------------------------------------------------

He is the o-ne, He ha-s co-me.
Death befals all he see, that includes you and me.
Comments