Kelly Paul - From Little Things Big Things Grow Chords & Tabs

 

From Little Things Big Things Grow Chords & Tabs

Kelly Paul Chords & Tabs

Version: 1 Type: Chords 0 ratings
1 star 2 stars 3 stars 4 stars 5 stars
comments

From Little Things Big Things Grow Chords

   
Paul Kelly – From little things big things grow

Tabbed by Nick Carson 5/12/02
Email mr_telecaster@hotmail.com

This song has 1 main part which is played throughout the whole song. 
Normal tuning but there’s a capo on the fourth fret. 
You should have a clean sound, a bit less bass and strum the chords 
just over the bridge pickup to get that sound.
[ Tab from: http://www.guitartabs.cc/tabs/k/kelly_paul/from_little_things_big_things_grow_crd.html ]
Verses: (The same throughout the whole song)
       C         Am        Em        G
E|-----4-4-4-4---4-4-4-4---4-4-4-4---6-6-6-6---|
B|-----5-5-5-5---5-5-5-5---4-4-4-4---4-4-4-4---|
G|-----4-4-4-4---6-6-6-6---5-5-5-5---4-4-4-4---|
D|-----6-6-6-6---6-6-6-6---4h6-6-6---4-4-4-4---|
A|---7-7-7-7-7-4-4-4-4-4---4h6-6-6---5-5-5-5---|
E|-----x-x-x-x---x-x-x-x-4-4-4-4-4-6-6-6-6-6---|
     Gather round..      I’ll tell..

Choruses: (The same throughout the whole song)
       C         Am        Em        G
E|-----4-4-4-4---4-4-4-4---4-4-4-4---6-6-6-6---|
B|-----5-5-5-5---5-5-5-5---4-4-4-4---4-4-4-4---|
G|-----4-4-4-4---6-6-6-6---5-5-5-5---4-4-4-4---|
D|-----6-6-6-6---6-6-6-6---4h6-6-6---4-4-4-4---|
A|---7-7-7-7-7-4-4-4-4-4---4h6-6-6---5-5-5-5---|
E|-----x-x-x-x---x-x-x-x-4-4-4-4-4-6-6-6-6-6---|
     From__    Little... Big things grow__

© Nick Carson 2002
Comments